Acordes de Guitarra » G »Guiso » El Sonido (Tab)

El Sonido
Guiso

Letras, Acordes y Tabs para Guitarra, Bajo y Ukulele

  •  Guiso, 'El Sonido'
     Compuesto por Guiso.
     Del álbum 'El Sonido' (Algo Records, 2004)
    
    
    
    Riff 1
    |---------------------|
    |----2----------------|
    |----2----------------|
    |----2-----2--2-------|
    |----0-----2--2--2----|
    |-------3--0--0--3----|
    
    Riff 2 (distorción)
    |----------------------------|
    |----------------------------|
    |---------------------2------|
    |--2-----2------------2---2--|
    |--2--2--2--5-5-5-3-0-0---2--|
    |--0--3--0--------------3-0--|
    
    Riff 3
    Re|-----------------------------------------|
    La|-----------------------------------------|
    Mi|--5-3--5-3--5-3--5-3--5-3--3-5-----------|
    
    
    
    Intro
          Riff 1  8x
    
    
    Riff 1
    A todos, los que fueron
    los mejores que existieron
    que han dejado el sonido, no les puedo pedir [La]más
    
    
    *Puente
        Riff 1 8x (con distorción)
    
    
    Riff 1
    A todos, los que fueron
    los mejores que existieron
    que han dejado el sonido, no les puedo pedir [La]más
    
    
    *Puente
        Riff 1 8x (con distorción) Mi5
        Riff 2 4
  • +
    ¡Colabora con nosotros!
    Envíanos tu versión de esta canción



Video de El Sonido
[]




[El Sonido chords][El Sonido cifra]
© LaCuerda.net · aviso legal · privacidad · es · en · pt · contacto