Acordes de Guitarra » G »el Gran Silencio » Tonta canción de amor (Tab)

Tonta canción de amor
el Gran Silencio

Letras, Acordes y Tabs para Guitarra, Bajo y Ukulele

  • C-F-C-G
    C-F-C-G
    
    C                     F                   C                F
    Y el encrisparse la piel como cuando el frio ataca sin avisar
    C                  F            C             F
    Asi sentia tus palabras que se clavavan en mi ser
    
    G                Am                 G              Am          G
    como la sangre cuaja lenta asi mi mente tardo en aceptar la sonrisa
     F             G
    que entume y engana a mi corazon
    
    C-F
    como el sentimiento cuando estas dormido y sientes que vas a caer..
    asi sentia tus palabras que se clavavan en mi ser
    
    G-Am
    me dio verguenza aceptar que sabia que no aceptabas esta union
    pero mi alma es tan terca y se engana con mi corazon
    
  • Una de las mejores canciones de El gran silencio 
    
    Intro:      
    
      ------------------------------------3----------
      -----------0h1--------------------3---3--------
      ------0---------0---------------0---------0----
      ----2---2---------2----------2--------------2--
      --3-----------------(3)---3--------------------
      -----------------------------------------------
    
      -----------------------------------------------
      ----------0h1--------------------3--1--0-------
      ------0-------0------------0-------------0-----
      ----2---2-------2------2-----2-----------------
      --3------------------3-------------------------
      -----------------------------------------------
    
    Se repite dos veces
    
      ...Engaña a mi corazon...
    
    
       --------------------------------------------------------------------------------
       --------------------------------------------------------------------------------
       --------------------------------------------------------------------------------
       
  • e|---------------------3--------------------------------------|
    B|-------0-1---------1---0------------0-1------------1-1------|
    G|-----0-----0-----2-------1--------0-----0--------3-----3----|
    D|---2---------2-3-----------2----2---------2----4---------3--|
    A|-3----------------------------3--------------5--------------|
    E|------------------------------------------------------------|
    
    BAJO: Metanle Velocidad
    Se Repite Durante Toda La Cancion Desde El Inicio, Menos
    Cuando Va El RIFF.
    e|--------------------------------------------------|
    B|--------------------------------------------------|
    G|--------------------------------------------------|
    D|------------3-3-2-3-2-----------3/5-5-5-5-5--3-2--|
    A|--3---0-2h3-----------3---0-2h3-------------------|
    E|----3-------------------3-------------------------|
    
    RIFF:
    e|----------------------------------------------------------------------------------------|
    B|----------------------------------------------------------------------------------------|
    
  • asi va  toda la cancion
    
                esto es desde el principio
    G-----------------------------------------------
    D---------3-4---3-4---------3-5-5-5-5-5--3/4\3--
    A-3---3-4-----3-----3---3-4---------------------
    E---3-----------------3-------------------------
    
    
    
    coro
    G---------------------------------
    D---------------------------------
    A---------------------------------
    E--3-3-3-3-3-3-3-3-5-5-5-5-5-5-5-5-3-3-3-3-3-3-3-3
    
    G----------------------------
    D----------------------------
    A------------5/7-5---------------
    E--5-5-5-5-5-------7-3-3-3-3-3-3-3-3- 1-1-1-1-1-1-1-1-3-3-3-3-3-3-0-3
    
    Y ASI VA TODA LA CANCION
  • +
    ¡Colabora con nosotros!
    Envíanos tu versión de esta canción

Letra de Tonta canción de amor
Y el encrisparse la piel como cuando el frio ataca sin avisar
Asi sentia tus palabras que se clavavan en mi ser
como la sangre cuaja lenta asi mi mente tardo en aceptar la sonrisa
que entume y engana a mi corazon
como el sentimiento cuando estas dormido y sientes que vas a caer..
asi sentia tus palabras que se clavavan en mi ser
me dio verguenza aceptar que sabia que no aceptabas esta union
pero mi alma es tan terca y se engana con mi corazon
Hacerse al idea de que tu eras mia es como ir de bajada
en un a gran subida pero tu vida es tan corta al igual que la
mia y yo llevo en el pecho una onda herida y herida
vida mia y herida vida mia y yo llevo en el pecho una
onda herida y herida vida mia y herida vida mia y es como
ir de bajada en una gran subida.
band;A;Mexicanto
rola;La maleta;A
comp;Enrique Quezada
albm;Si llegas;1990
tran;Germán Neftalí;S
mail;gneftali@yahoo.com
Anoche perdí la maleta
con mi camisa mejor
los miedos y el frío de enero
mil años de indigestión
Anoche perdí la maleta
donde guardaba tu amor.




[Tonta canción de amor chords][Tonta canción de amor cifra]
© LaCuerda.net · aviso legal · privacidad · es · en · pt · contacto