Acordes de Guitarra » G »el Gran Silencio » Círculo de amor (Tab)

Círculo de amor
el Gran Silencio

Letras, Acordes y Tabs para Guitarra, Bajo y Ukulele

  • G                       Em
    y sigue la mata dando y yo te estoy 
               
              Am                         D7      
    esperando para decirte que te quiero para
                                               G
    decirte que sinti me muero y quiero que todo
           Em                  
     mundo se entere que para mi no existen fronteras
     Am                      D7                          
     y que me muevo para donde quiera por que hay
     G                       Em
     algunas personas que no me conocen y me ven,
       Am                        D7        G  
    y piensan y dicen y sienten cren que, que solo 
                       Em  Am                 
    soy un pobre perdedor pero eso no me interesa
     D7                                  G
     por que tengo a mi familia y tengo corazon
                   Em                    Am                
    
  • G                       Em
    Y sigue la mata dando y yo te estoy esperando
    Am                                D7
    para decirte que te quiero para decirte que sin ti me muero
    G                             Em
    y quiero que todo el mundo se entere que para mí no existen
    Am          D7
    fronteras y que me muevo para donde quiera
    G                  Em
    porque hay algunas personas que no me conocen y me
    Am                      D7
    ven y piensan y dicen y sienten creen que
    G                     Em
    que solo soy un pobre perdedor
    Am                      D7
    pero eso no me interesa por que tengo a mi familia y tengo un
    G               Em
    corazón y dos y tres cuatro y cinco y seis
    Am                  D7
    y soy feliz todo el día y todo el mes
    
  •     G        E        A        ?
    -3-3-3-0--0-0-0-0--0-0-0-0--2-2-2-0-
    -3-3-3-0--0-0-0-0--1-1-1-0--1-1-1-0-
    -0-0-0-0--0-0-0-0--2-2-2-0--2-2-2-0-
    -0-0-0-0--2-2-2-0--2-2-2-0--0-0-0-0-
    -2-2-2-0--2-2-2-0--0-0-0-0--0-0-0-0-
    -3-3-3-0--0-0-0-0--0-0-0-0--0-0-0-0-
    
    lo cual lleva un ritmo rondallero
    
    y esto es lo q va con acordeon al principio
    
    e--------------------------------------
    B-7-5---3-3-3-5-5-3-1---1-1-1-3-3-1-0--
    
    
    e-0-1-3-1-0-1-1-0----------------------
    B-----------------3-3-1-3-1-3-1-0------
    
    e-3-3-3-1-0-0-0-1-3-1-3-1-0-----------
    
  • Aqui esta el famoso requinto de esta cancion q esta casi 
    al final tengo 3 meses con guitarra, pero este requinto 
    esta bien, PARA PODERLO TOCAR NECESITAS UN CAPO EN EL 
    SEPTIMO TRASTE Y TOCAR EL CIRCULO DE DO 
    
    
    1---0-1-3-1-0-------------------0-1-3-1-0---------
    2-------------3-1-0-------0-1-3-----------3-1-0---
    3-3-----------------2-0-2-------------------------
    4-------------------------------------------------
    5-------------------------------------------------
    6-------------------------------------------------
    
    1-3-1-0------5-3-1-0-----7-5-3-1-0---------------
    2------3-1-0---------3-1-----------3-1-0-1-------
    3------------------------------------------------
    4------------------------------------------------
    5------------------------------------------------
    6------------------------------------------------
    
    1-------------------0-1-3-5-7-8-10-8-7-8-7-5-7-5-
    2-------------0-1-3------------------------------
    3---------0-2------------------------------------
    4---0-
  • El Famoso Solo Aqui esta...100% Correcto
    
    E|---7-8-10-8-7----------------------7-8-10-8-7----------------------------------|
    B|-5------------10-8-7-------7-8-10-------------10-8-7---------------------------|
    G|---------------------9-7-9-----------------------------------------------------|
    D|-------------------------------------------------------------------------------|
    A|-------------------------------------------------------------------------------|
    E|-------------------------------------------------------------------------------|
    
    E|-10-8-7--------12-10-8-7------14-12-10-8-7-------------------------------------|
    B|--------10-8-7-----------10-8-------------10-8-7-8-----------------------------|
    G|-------------------------------------------------------------------------------|
    D|-------------------------------------------------------------------------------|
    A|-------------------------------------------------------------------------------|
    E|----------------------------
  • Este es el VERDADERO requinto de Circulo de Amor. 
    Necesita mucha velocidad para sonar como en la canción, 
    DISFRÚTENLO!!!!
    
    V = vibrato
    
    1—-0--7--8--10--8--7-------------------------------7--8--10
    2--------------------10--8--7-----------7--8--10-----------
    3------------------------------9--7--9---------------------
    4----------------------------------------------------------
    5----------------------------------------------------------
    6----------------------------------------------------------
    
    1--10--8--7----------10--8--7---------12--10--8--7---------
    2-----------10--8--7----------10--8--7-------------10--8---
    3----------------------------------------------------------
    4----------------------------------------------------------
    5----------------------------------------------------------
    6----------------------------------------------------------
    
    
    1--14-12-10--8--7----------------------7-8-10-12-14-15-17-15
    2----------------10v-------------7-8-10--------------
  • Estaba escribiendo esta cancion para un compa que toca 
    el bajo, y  note que no la tenian aqui. En realidad parece 
    que la canción no lleva bajo! pero pueden tocar esto y se 
    oye muy bien acompañando al circulo de sol 
    (los riffs se repiten con el circulo):
    
    s-slide
    
    este es el riff principal (fijense en el ritmo de la guitarra):
    
    G--------------------------------------------
    D--------------------------------------------
    A-10-10-10-9--------------------------------9  
    E------------12-12-12-10-8-8-8-12-10-10-10---
    
    en la parte antes de que diga 'solo besarte quisiera' toquen este riff:
    
    G----------------------------------------------
    D----------------------------------------------
    A-10-10-10-9-------------------------------9-10
    E------------12-12-12-10-8-8-8-12-10-12-10----- 
    
    y se callan y luego vuelven a empezar con la riff principal 
    en el tercer quSIera.(o sea despues de 8 tiempos.)
    
    
    Cuando empieza la parte de 'Que lindos ojos tiene mi chata' 
    tocan est
  • BUENO  HAY LES VA
    
    C=CRASH
    H=HI-HAT
    H*=HI-HAT ABIERTO
    T=TAROLA
    T1=
    T2=
    B=BOMBO
    
    CUADO VEAN  H*X_/_ ES QUE ABRAN EL HAI-HAT
    
    PRIMERO EMPIEZA LA GUITARRA
    
    
    Y SIGE LA MATA DANDO..............
    C—-X------/--------/----------/----------/---------/---------/---------/
    H---------/XXXXXX--/--XXXXXX--/--XXXXXX--/-XXXXXX--/-XXXXXX--/-XXXXXX--/
    H*--------/------X_/_-------X_/_-------X_/_------X_/_------X_/_------X_/
    T---XXXX-X/--X—-X--/--—-X—-X--/--—-X—-X-—/---X—-X--/-—-X—-X--/-—-X—-X--/
    B---------/X-—X--—-/--X—-X----/-—X—-X-—--/-X-—X-—--/-X-—X—---/-X—-X—---/
    
    
    C---------/----------/----------/---------/---------/---------/
    H-XXXXXX--/--XXXXXX--/--XXXXXX--/-XXXXXX--/-XXXXXX--/-XXXXXX--/
    H*------X_/_-------X_/_-------X_/_------X_/_------X_/_------X_/
    T---X—-X--/--—-X—-X--/--—-X—-X-—/---X—-X--/-—-X—-X--/-—-X—-X--/
    B-X-—X--—-/--X—-X----/-—X—-X-—--/-X-—X-—--/-X-—X—---/-X—-X—---/
    
    
    
    C---------/------/
    H-XXXXXX--/------/
    H*-
  • +
    ¡Colabora con nosotros!
    Envíanos tu versión de esta canción
  • Tutorial
    HD
    Cómo tocar REQUINTO de CIRCULO DE AMOR - El gran silencio
    Como tocar#33
    Tutorial d
    15:46

Letra de Círculo de amor
y sigue la mata dando y yo te estoy

esperando para decirte que te quiero para
decirte que sinti me muero y quiero que todo
mundo se entere que para mi no existen fronteras
y que me muevo para donde quiera por que hay
algunas personas que no me conocen y me ven,
y piensan y dicen y sienten cren que, que solo
soy un pobre perdedor pero eso no me interesa
por que tengo a mi familia y tengo corazon
y dos y tres y cuatro y cinco y seis y soy
feliz todo el dia y todo el mes
pero eso no me inporta yo solo vine
para decirte que yo te quiero y que me
gusta cantar y cantar y cantar
en la guitarra solamente yo me se el
circulo de sol
y eso me basta para decirte que te quiero
y eso me basta para decirte que te quiero y que te quiro
eso me basta para decirte que te quiero
y eso me basta para decirte que sinti me desespero...
(se repite ota vez)
y antes de morir... me quiero decirte te
quiero,te quiero,te quiero,
te quiero,te quiero
por que sigue la mata dndo,
dando y yo te estoy esperando
para decirte que te quiero,
que te quiero y que te quiero
que te quiero y que sinti me desespero
(se repite otra vez)
que lindos tiene mi chata como relumbran
cuando me ven
son negros negros como
la noche y tan serenos como
mi fe esos ojitos son mi esperanza
no me los quites nunca señor no me
los quites diosito santo por que sin
ellos muero de amor

no necesito que me digas que me
quieres por que ya lo se y por que miro
como me miras y tambien se que piensas
en mi cada vez que me voy y cuando no
estoy me esperas por que sabes bien que
tengo que regresar con tigo por que me
gusta estar como me gusta cantar y cantar
y cantar en la guitarra solamente yo me se
el circulo de sol
Toda la canción sigue igual el ritmo
es rondallero pero un poco mas rapido.




[Círculo de amor chords][Círculo de amor cifra]
© LaCuerda.net · aviso legal · privacidad · es · en · pt · contacto