Acordes de Guitarra » G »el Gran Silencio » Duerme Soñando (Tab)

Duerme Soñando
el Gran Silencio

Letras, Acordes y Tabs para Guitarra, Bajo y Ukulele

  • E
    La vida la vida la vida que la vida  
    D
    Y tratar de entenderla se nos va la propia vida
    E
    Tan simple tan fuerte tan llenamente suerte
    D
    Lo que acontece para preparación de la muerte 
    E
    Pero es absurdo ocuparme de este estudio
    D
    Cada año segundo a segundo
    E
    No es tan profundo dormir soñando 
    D
    Es la respuesta tal vez  es erronea tal vez correcta 
    E                                         D
    Sueña a la paz del presente y no del futuro 
    E                               D
    Porque de esto no estas tan seguro 
    
  •            E
    Duerme soñando,
    con tus ojos tan plenos despiertos,
    con tu corazón lleno y radiante,
          D
    alucinante,
    tan lleno de amor.
    E
    La vida la vida la vida que la vida
         D
    en tratar de entenderla se nos va la propia vida,
          E
    tan simple tan fuerte tan llenamente suerte,
    D
    lo que acontece para preparación de la muerte,
    E
    pero es absurdo ocuparme de este estudio,
     D
    cada año segundo a segundo,
    E
    
  • e|-5--3--2--0-----
    B|-7--5--3--1--3--
    G|-------------4--
    D|----------------
     Duer-me-so-ñan-do
    
    e|--------5--5---5---5---3---2---0-------|
    B|-3---5--7--7---7---7---5---3---1----3--|
    G|-4---7------------------------------4--|
    D|---------------------------------------|
      con-tus-o-jos-tan-ple-nos-des-pier-tos
    
    e|--------5-5---5---5---3---2---0-------|
    B|-3---5--7-7---7---7---5---3---1----3--|
    G|-4---7-----------------------------4--|
    D|--------------------------------------|
      con-tu-co-ra-zón-lle-noy-ra-dian-te
                                     D D  E  D D  E  D D  E D   
    e|--3--2--0--|------0----0--2--|-5-5--7--5-5--7--5-5--7-5--|
    B|--5--3--1--|--1------1----3--|-7-7--9--7-7--9--7-7--9-7--|
    
  • E|-10--9---7--5--4-
    B|-12--10--9--7--5-
    G|-----------------
    D|-----------------
     Duer-me-so-ñan-do
    
    E|-4---5--10--10---10---10---9---7---5---4---|
    B|-5---7--12--12---12---12---10--9---7---5---|
    G|-------------------------------------------|
    D|-------------------------------------------|
      con-tus-o-jos-tan-ple-nos-des-pier-tos
    
    E|-4---5--10--10---10---10---9---7---5---4---|
    B|-5---7--12--12---12---12---10--9---7---5---|
    G|-------------------------------------------|
    D|-------------------------------------------|
      con-tu-co-ra-zón-lle-noy-ra-dian-te
    
                                     D D  E  D D  E  D D  E D
    e|--7--5-44-2|-5---4---5----4--|-5-5--7--5-5--7--5-5--7-5--|
    
  • A-7--5--7--5--3--3- <---Esto es lo basico. Casi toda la rola lo lleva.
    E---7----7--5--5---
    
    Los golpes son asi:
    
    G----------------------------
    D----------------------------
    A-777777-555555-777777-55555-
    E----------------------------
    
    Al final son menos golpes, pero las pisadas son las mismas. OK
    
    
    Esta rola es sencilla, solo deben checar tiempos
    para saber donde mete cada cosa. 
    Hay pedazos en los que se queda en un tono un ratito mas
    pero es cuestion nomas de oirla como les digo.
    
    
    Es Todo!
    
  • +
    ¡Colabora con nosotros!
    Envíanos tu versión de esta canción
  • Tutorial
    HD
    Como tocar DORMIR SOÑANDO en guitarra - El Gran Silencio [Tutorial Somos Posers]
    3:27

Letra de Duerme Soñando
La vida la vida la vida que la vida
Y tratar de entenderla se nos va la propia vida
Tan simple tan fuerte tan llenamente suerte
Lo que acontece para preparación de la muerte
Pero es absurdo ocuparme de este estudio
Cada año segundo a segundo
No es tan profundo dormir soñando
Es la respuesta tal vez es erronea tal vez correcta
Sueña a la paz del presente y no del futuro
Porque de esto no estas tan seguro
Aca tus enojos
Cosecha y eres libre
Aguarda tus despojos
Llena tu maleta de responsabilidad
Deja para mañana tu personalidad
Mas si tu sientes una contradiccion
Que te mire y te respete y al despertar te duerme
Tal vez si lo dices no eres tan inteligente
La gente solo observa la ropa y los hechos
Mas nunca siente lo que hay dentro del pecho
No existe entre ellos una real conexión
Pues creen siempre tener la razon
La razon justa y procesadora
De lo correcto que se hace a cada hora
Pero en este sueño ya esta sumergido
Mas no te sientas nunca afligido
Porque con este sueño tu estas protegido
Y aunque te sientas un poco distante tu alma lo dice
A cada instante
Duerme soñando
Con tus ojos tan plenos despiertos
Con tu corazón lleno y radiante
Alucinante
Tan lleno de amor Tan lleno de amor
Tan lleno de amor Tan lleno de amor
La vida la vida la vida que la vida y tratar de entenderla se nos va la propia vida
La vida la vida la vida que la vida y tratar de entenderla se nos va la propia vida
No estoy tan convencido de vivir en esta vida
No estoy tan convencido de vivir en esta vida
No estoy tan convencido de vivir en esta vida
No estoy tan convencido de vivir
**Duerme soñando.........................
**Duerme soñando.........................
Lleno de amor, lleno de amor
Ahhhhhhhhhhhhhhhhhhhhhhh!
Alguna sugerencia o comentario favor de mandar al e-mail KEVINN_0007@HOTMAIL.COM




[Duerme Soñando chords][Duerme Soñando cifra]
© LaCuerda.net · aviso legal · privacidad · es · en · pt · contacto