Acordes de Guitarra » G »Git » Tarado de cumpleaños (Tab)

Tarado de cumpleaños
Git

Letras, Acordes y Tabs para Guitarra, Bajo y Ukulele

  • A
    Solo te asesinas con tu vanidad
    A                       F#m
    Sexo en la cocina
    A
    Vendes fantasías pero viene igual
    A                           F#m
    
    Y hoy me ganas otra vez
    D
    si ya no hay nada que perder
    D  Bm                 E
    
    Instrumental... A, F#M
    
    Busca la serpiente
    A
    Algo deferente el árbol le da igual
    A                             F#m
    Nada encuentra afuera
    
  •          LA                            FA#n
    A) ya no me lastimas solo te asesinas con tu vanidad..
    
    1/------0-------------------------------0---/--
    2/------5-------------------------------7---/--
    3/------6-------------------------------6---/--   X: no se toca 
    4/------7-------------------------------7---/--      esta cuerda
    5/------0-------------------------------X---/--
    6/--------------------------------------X---/--
    
    sexo en la cocina........
          
            RE           MIsus
    B) Y hoy me ganas otra vez
    
    1/----2------------5----------/--
    2/----3------------5----------/--
    3/----2------------4----------/--    
    4/----0------------0----------/--     
    5/----------------------------/--
    
  • Bueno, ahora el bajo de este tema.
    
    
    Intro: en la , bajo afinado en MI
    
    1/--------------------------/--
    2/--------------------------/--
    3/--------------------------/--
    4/--------------------------/--
    5/--------------------------/--
    6/---5-5-5-5--2-2-2-2-2-----/--
            La       Fa#
    
    A) a no me lastimas solo te asesinas con tu vanidad..
    
    1/------------------------------------------------------/--
    2/------------------------------------------------------/--
    3/------------------------------------------------------/--
    4/------------------------------------------------------/--
    5/------------------------------------------------------/--
    6/---5-5-5-5------------------------------2-2-2-2-2-----/--
            La                                   Fa#
    
    B)Y hoy me ganas otra vez
    1/------------------------/--
    2/------------------------/--
    3/------------------------/--
    4/------------------------/--
    5/---5-5-5-5---5-5-5-5----/--
    6/------------------------/--
           
    y ya
  • +
    ¡Colabora con nosotros!
    Envíanos tu versión de esta canción

Letra de Tarado de cumpleaños
Sexo en la cocina
Vendes fantasías pero viene igual
Y hoy me ganas otra vez
si ya no hay nada que perder
Instrumental... A, F#M
Busca la serpiente
Algo deferente el árbol le da igual
Nada encuentra afuera
Y veo las huellas de tus pies
Que el viento borra cada vez
Una y otra vez
Es que no lo vez
No si no querés
Instrumental... A, F#m
Otro amor prohibido
Un gesto escondido en mi corazón
Dentro del abrazo
Lejos del aplauso nace una canción
Y veo las huellas de tus pies
Que el viento borra cada vez… coro
Una y otra vez... otra vez otra vez
Es que no lo vez
No no vez no no vez si no querés
Una y otra vez... otra vez otra vez
Es que no es que no lo vez
No no vez no no vez nooooo
Instrumental... C, Lm
No no no lo vez…….. es que no lo vez
No no no lo vez…….. es que no lo vez…




[Tarado de cumpleaños chords][Tarado de cumpleaños cifra]
© LaCuerda.net · aviso legal · privacidad · es · en · pt · contacto
DINAMICO