Acordes de Guitarra » G »Git » Es por amor (Tab)

Es por amor
Git

Letras, Notas, Punteos, Tablaturas y Acordes de Guitarra (Tabs & Chords)

  • Letra y Acordes
    E  |-----8-8--8-8-8-------6--6----------------------|
    B  |-----8-8--8-8-8-------6--6----------------------|
    
    BAJO
    
    G |--------------------------------------------------|
    D  |-------------------------------------------------|
    A# |-----3--------------3----------------------------|
    E  |--------3--5---3------3-5-3-----------6--5-6-----|
    
     C
    Es por amor
     A#                C
    que al mudo yo le hago frente
     A#    C
    y por amor
     A#                C   A#
    si caigo me levanto siempre;
     C      A#          C  A#
    y al costado del camino
    
  • Tablatura
    e ---------------------------------------------------
    b -/-13--13-13-13-13-13-13-/-11-11--11-11--11/-(13)--
    g -/-12--12-12-12-12-12-12-/-10-10--10-10--10/-(12)-- x8
    d ---------------------------------------------------
    a ---------------------------------------------------
    e ---------------------------------------------------
    
    Estrfa 1: sin guitarra.
    
    Es por amor
    
    que al mudo yo le hago frente
    
    y por amor
    
    si caigo me levanto siempre
    
    y al costado del camino
    
    veo ángeles caídos
    
  • Tab p/Bajo
    riff 1
    1 -----------------  -----------------
    2 -----------------  -----------------
    3 -3-------3-----3-  -----------------
    4 ---3-5-3---3-5---  -6-5-6-----------
    
    riff 2
    1 -----------------  -----------------
    2 -----------------  -----------------
    3 -----------------  -----------------
    4 -1-1-1-1-1-1-1-1-  -1-1-1-1-1-1-1-1-
    
    
    intro: riff 1
    
    riff 1
    Es por amor
    que al mudo yo le hago frente
    y por amor
    si caigo me levanto siempre;
    y al costado del camino
    veo ángeles caídos.
    
    riff 1
    Es por amor
    Que nunca voy a abandonarte
    Y por amor
    Espero lo que vas a darme
    Y al costado del camino
    Veo ángeles caídos
    
    riff 2
    Hay una fiesta...
    Y es esta noche
    Baila conmigo...
    Así te pido dame
    
    riff 1
    Uh uh uh... Mirame... Uh uh uh
    
    riff 1
    Es por amor
    Que uno hace lo que siente
    Y por amor
    Yo sigo y sigo aunque me cueste.
    Y al costado del camino
    Veo ángeles caídos
    
    riff 2
    Hay una fiesta...
    Y es esta noche
    Baila conmigo...
    Así te pido dame
    
    riff 1
    Uh uh uh... Mirame... Uh uh uh
  • +
    ¡Colabora con nosotros!
    Envíanos tu versión de esta canción
  • Tutorial
    HD
    Es por amor - GIT (tutorial)
    4:53
  • Tutorial
    HD
    INTRO
    Como tocar ES POR AMOR en guitarra - GIT [Tutorial Rockstars]
    1:34
  • Tutorial
    HD
    Explicado - Como tocar "Es por amor" de G.I.T. en el bajo tutorial#151
    0:09

Letra de Es por amor
BAJO
Es por amor
que al mudo yo le hago frente
y por amor
si caigo me levanto siempre;
y al costado del camino
veo ángeles caídos
Es por amor
Que nunca Voy abandonarte
Y por amor
Espero lo que vas a darme
Y al costado del camino
Ve-veo ángeles caídos
EL F DEL PUENTE SE PUEDE REEMPLAZAR POR ESTE RIFF
Hay una fiesta…. Y es esta noche
Baila conmigo…. Así te pido dame
Uh uh uh …. Mirame…. Uh uh uh
Es por amor
Que uno hace lo que siente
Y por amor
Yo sigo y sigo aunque me cueste.
Y al costado del camino
Ve-veo ángeles caídos
EL F DEL PUENTE SE PUEDE REEMPLAZAR POR ESTE RIFF
Hay una fiesta…. Y es esta noche
Ba-ba-baila conmigo…. Así te pido dame
Uh uh uh……….. Mírame… Uh uh uh
Mírame ya, mírame…… Uh uh uh
Mírame… Uh uh uh .
Mírame…………



© LaCuerda.net · Aviso Legal · Privacidad