Acordes de Guitarra » G »Git » La calle es su lugar (Tab)

La calle es su lugar
Git

Letras, Acordes y Tabs para Guitarra, Bajo y Ukulele

  • e|-----------------0---2---------------------------------------------|
    B|-----3-2------------2----------------------------------------------|
    G|---4----4------4---3-----------------------------------------------|
    D|--4------5-2--5---4------------------------------------------------|
    A|-2-----------------------------------------------------------------|
    E|-------------------------------------------------------------------|
    
    Intro:  Bm  A  F#m  Em  F#m
    
             Bm          A     Em     F#m
    Ella es amiga de un pordiosero
             Bm          A     Em     F#m
    y toma anfetas cuando está mal
             Bm          A     Em     F#m
    si su cama fue un triste agujero
             Bm          A     Em     F#m
    cuál es la culpa que debe pagar.
    
    
    Nadie le dijo qué venía primero
    
  •      LA (bajo en LA)
    La calle es su lugar
         SIm (bajo en SI)
    ella sabe bien
         LA
    no va  avolver atrás, 
          SIm         DO#m         RE
    ni por uno, ni por 20, ni por 100
    
    Guitarra (1)
    Bajo (2)
    
    bajo en (2)
    no no me hablen de la....
    o de la busqueda del placer..
    
    LA
    La calle es su lugar....
    
    Coro:
    
  • Esta canción es bastante sencilla en relación al bajo
    
    
    La Introducción y las estrofas son así
    
    
    G|----------------------------||
    D|----------------------------||
    A|-2----2---0-----------------||
    E|------------0---2-----------||
    
    
    La parte en que sube la voz aproximadamente al minuto 0:43
    
    G|---------------------------------------------------------------|
    D|---------------------------------------------------------------|
    A|--0(15 veces)-----0(15 veces)-2(8veces)--4(8veces)--5(8 veces)-|
    E|-------------3(15 veces)---------------------------------------|
    
    Coro
    G|---------------------------------------------------------------|
    D|---------------------------------------------------------------|
    A|--2(al ojo)-(2-0)-----------0--2(al ojo)---0-------------------|
    E|-----------------3(al ojo)-----------------------3-------------|
    
    Al minuto 2:46
    
    G|---------------------------------------------------------------|
    D|---------------------------------------------------------------|
    A|------0-(S
  • +
    ¡Colabora con nosotros!
    Envíanos tu versión de esta canción
  • Tutorial
    HD
    Explicado - Como tocar "La calle es su lugar" de G.I.T. en el bajo tutorial#102
    8:54
  • Tutorial
    La calle es su lugar - GIT - Tutorial Guitarra Eléctrica Paso a Paso
    14:39

Letra de La calle es su lugar
Ella es amiga de un pordiosero
y toma anfetas cuando está mal
si su cama fue un triste agujero
cuál es la culpa que debe pagar.
Nadie le dijo qué venía primero
a qué teléfono contestar
gente sucia encontró en su ruta
a hierro y fuego aprendió a jugar.
ella sabe bien
MISUS4 RE4sus REMAYOR
No, no me hablen del camino del diablo
de la búsqueda del placer
ella lucha por su dinero
vende su tiempo sin mirar a quién.
La calle es su lugar
ella sabe bien
no va a volver atrás
ni por uno, ni por veinte ni por cien.
Ana, Ana, Ana
Ana, Ana, Ana
puedes ser feliz igual.
La calle es su lugar
ella sabe bien
no va a volver atrás
ni por uno, ni por veinte ni por cien.
ella sabe bien
MISUS4 RE4sus REMAYOR
Ana, Ana, Ana
si quieren usan palm mute(opcional)
SIMENOR
REPITEN EL INTRO AL FINAL
GRACIASSS A LOS QUE LES GUSTA LA BUENA MUSICAAA Y SABEN APRECIARLA
A MI BANDA SANTUARIO, ESTO HACE QUE TODOS CRESCAMOS
TODOS LOS MUSICOS y A ESTO NOS DEBEMOS,APOYARNOS.Y DARNOS LA MANO
COMO MUSICOS SIN ENVIDIAS SIN NADA SOLO CON EL AFAN DE SEGUIR MEJORANDO:
A MAX A ALAN A ROCHO QUE HACEN POSIBLE TODO ESTO UN SALUDO Y
AL PADRE QUE SIEMPRE NOS APOYA ACA MI CORREO CUALQUIER COSA
DUDA A santuario_8649@HOTMAIL.COM




[La calle es su lugar chords][La calle es su lugar cifra]
© LaCuerda.net · aviso legal · privacidad · es · en · pt · contacto