Acordes de Guitarra » G »Gipsy Kings » Háblame (Tab)

Háblame
Gipsy Kings

Letras, Acordes y Tabs para Guitarra, Bajo y Ukulele

  •                                  Ebm                                                    Bbm
    
    -----------6--------------------------------------------6-----------------
    7--6--7------7--6--7-----------------------7--6--7------7--6--7--6--
    -------------------------8------------------------------------------------
    ---------------------------------------------------------------------------
    ---------------------------------------------------------------------------
    ---------------------------------------------------------------------------
    
                                       B                                                      F#
    ----------------------------------------------4---------------------------
    -----------9--7--6--7------------------------7--------------------------
    4--6--8-----------------8---------------------8-------------------------
    -------------------------------------------------9-------------------8---- 
    ---------------------------------------------------4-----------------------
    --------------------------------------------------------------------------
    
    F#
    Habla me
    
    
  •                  Am                  Em
     -------a--------------------a-------------
     -1-a-1---1-a-1--------1-a-1---1-a-1-------
     ------------------------------------------
     ------------------------------------------
     ------------------------------------------
     ------------------------------------------
    
                    F      arpegio        C
     ---------------------------0--------------
     -----a-3-1-a--------------1---------------
     -a-2---------2-----------2----------------
     ----------------------------3^2^a---------
     ------------------------------------------
     ------------------------------------------
    
         C
    Hablame
                   F
    como te camelo yo
    
  • +
    ¡Colabora con nosotros!
    Envíanos tu versión de esta canción

Letra de Háblame
Habla me
Como te camelo yo
Quiere me
Como te amo yo
Es un amor tan clave
De que amor que yo tenía lo guardaba
De que amor que yo tenía lo guardaba
Es como un final y volver ayer.
Quiere me
Como te camino yo
Quiere me
Como te amo yo
Es un amor posible
De que amor que yo tenía lo guardaba
De que amor que yo tenía lo guardaba
Es como un final y volver ayer.
Y ya volver a ver
Que no ya comprenden
De que amor que yo tenía lo guardaba
De que amor que yo tenía lo guardaba
Es como un final y a volver ayer.
Yo se que volverás
Y no sentir el amor
De que amor que yo tenía lo guardaba
De que amor que yo tenía lo guardaba
Es como un final y a volver ayer.
CHORDS:




[Háblame chords][Háblame cifra]
© LaCuerda.net · aviso legal · privacidad · es · en · pt · contacto