Acordes de Guitarra » G »Gipsy Kings » Hotel California (Tab)

Hotel California
Gipsy Kings

Letras, Acordes y Tabs para Guitarra, Bajo y Ukulele

  • INTRO: Bm
    
    Bm                         F#
    Por el camino del desierto, El viento me despeina
    A                        E
    Sube el aroma de colita, Luna, luna de nadie
    G                D
    Ella a lo lejos, Una luz centela
    Em                  F#
    La idea de mi estar, Quedar por la noche
    Bm                       F#
    Alli estaba a la entrada, Y las campanas en el sonar
    A                   E
    Y me dije ya mismito, Que es puerta del cielo
    G                      D
    Ella enciende una vela, Y muestra del camino
    Em                        F#
    Suenan voces en corriador, Y yo le dije mi cien
    
    
    
  • 1ª Guitarra 
    
                                                          
    E||------------------------0-|-----------------------|
    B||----------3-2-3-----2-3---|-----------------------|
    G||--------------------------|--3--------------2-1---|
    D||--------------------------|---------------------4-|
    A||--------------------------|-----------------------|
    E||--------------------------|-----------------------|
    
    
                                                                                   
    ------------------------0---|--------------------|----------------------------|
    ------------3-2-0---0-2-----|--------------------|------------3-2-0---0-------|
    --2---------------2-------1-|--------------------|--0---------------2---2-0---|
    ----------------------------|----------------2-4-|--------------------------4-|
    ----------------------------|--------------------|----------------------------|
    ----------------------------|--------------------|----------------------------|
    
    
                    
  •  A =  jalar hacia Abajo(no se puede transcribir bien aqui)
    Intro:
    
        SIm                                  (X)
    1|---2------------------------------------2----------------------------
    2|---3------------------3-5-7h8h7-5/7-7---2-------3-2------------------
    3|---4---4-4h6h43--4-6--------------------2---2-4-----2-2h4-2----------
    4|---4------------------------------------2-------------------4a2-0/2-2
    5|---2------------------------------------0----------------------------
    6|---2------------------------------------0----------------------------
    
    
                                    (cada vez mas rápido)
       (X)                               -----------------(8 veces)
    1|--0-------0-----0-----0-----0-----------7-------10---------------
    2|--0------0-----0-----0-----0----------8---8---8----8-------------
    3|--0-----0-----2-----4-----7---------9-------9--------------------
    4|--2----2-----4-----5-----9---------------------------------------
    5|-----------------------------------------------------------------
    6|-----------------------------------------------------------------
    
  • +
    ¡Colabora con nosotros!
    Envíanos tu versión de esta canción

Letra de Hotel California
Por el camino del desierto, El viento me despeina
Sube el aroma de colita, Luna, luna de nadie
Ella a lo lejos, Una luz centela
La idea de mi estar, Quedar por la noche
Alli estaba a la entrada, Y las campanas en el sonar
Y me dije ya mismito, Que es puerta del cielo
Ella enciende una vela, Y muestra del camino
Suenan voces en corriador, Y yo le dije mi cien
Welcome to the Hotel California
Such a lovely place, Such a lovely place
Welcome to the Hotel California
Such a lovely place, Such a lovely place
Ella al lado que brillaba, Tenia una Mercedes
Rodeada de chicos guapos, Ella llamaba amigos
Cuando viene despacio, Del tumba de verano
Aquel era pa recordar, Y otro pa olvidar
Le pedi al capitan, Que sirve el vino
Y pedi con un amor, Tenido este alcohol
De este sesenta y nueve, Famosa y que llamando
Pues me va a despertar, La noche para decir
Welcome to the Hotel California
Such a lovely place, Such a lovely place
Welcome to the Hotel California
Such a lovely place, Such a lovely place
El espejo en el techo, Champana en el hielo
Y ella dijo somos todos, toditos prisioneros
Y en los cuartos principales, Hacen sucias de estas
Hasta ataca a la bestia, Pero no la logra matar
Y mi ultimo recuerdo, Corria hacia la puerta
Viendo una candela en el camino, Por donde habia llegado
Relax dijo el portero, Por mi es honor de recibir
Puede salir cuando quiere, Pero no puede partir
Welcome to the Hotel California
Such a lovely place, Such a lovely place
Welcome to the Hotel California
Such a lovely place, Such a lovely place




[Hotel California chords][Hotel California cifra]
© LaCuerda.net · aviso legal · privacidad · es · en · pt · contacto