Acordes de Guitarra » F »Flema » Quizás... (Tab)

Quizás...
Flema

Letras, Acordes y Tabs para Guitarra, Bajo y Ukulele

  • Intro: D
    
    D                           A                   G
    Me podes ver caer y no comprender por que fue así
    
    D                                 A             G
    y aunque lo intente vos ya no queres confiar en mi
    
        A             G       A
    no se, vos no queres, no se...
    
    
    D                           A                   G
    Hoy cuando desperte no pude recordar lo de ayer
    
    D                                A          G
    ni cuando empece ni cuando termine y te perdi
    
        A                G      A
    no se, quizas te perdi, no se...
    
  •     D                   A
    e|-------------------------------------|
    B|-------------------------------------|
    G|--7vvv---9-9b11--9b11-9b11r9-9-9vvv--|
    D|-------------------------------------|
    A|-------------------------------------|
    E|-------------------------------------|
    
                    G
    e|-------------------------------------------|
    B|--8p7---7----------------------------------|
    G|------9---9-7-9-7---7-------7---7-9-11vvv--|
    D|------------------9---9-7-9---9------------|
    A|-------------------------------------------|
    E|-------------------------------------------|
    
                                   D                    A
    e|--------10-12-12b14r12-10-12-10vvv----10-------------------------------|
    B|--10-12----------------------------14----14-12-10----------------------|
    G|--------------------------------------------------12-12b14r12vvv-11-9--|
    
  • hola gente
    escuchen la cancion por los ritmos
    y sigan la tab...
    
    INTRO
    G/---------------------------------------------------------
    D/---------------------------------------------------------
    A/-555--555555---555---555555------------------------------
    E/---------------------------------------------------------
    
    
    ME PODES VER CAER Y NO COMPRENDER PORQUE FUE ASI...        (X2)
    G/---------------------------------------------------------
    D/---------------------------------------------------------
    A/-5555---0000---------------------------------------------
    E/---------------3333--------------------------------------
    NO SE, VOS NO QUERES, NO SE...                             (X1)
    G/---------------------------------------------------------
    D/---------------------------------------------------------
    A/-0000----------0000--------------------------------------
    E/--------3333---------------------------------------------
    
    
    HOY CUANDO DESPERTE NO PUDE RECORDAR LO DE AYER...         (X2)
    G/-----------
  • +
    ¡Colabora con nosotros!
    Envíanos tu versión de esta canción

Letra de Quizás...
Me podes ver caer y no comprender por que fue así
y aunque lo intente vos ya no queres confiar en mi
no se, vos no queres, no se...
Hoy cuando desperte no pude recordar lo de ayer
ni cuando empece ni cuando termine y te perdi
no se, quizas te perdi, no se...
Quizas vuelva a emborracharme
quizas no lo vuelva a hacer
quizas vuelva a repetirlo
quizas no lo se.




[Quizás... chords][Quizás... cifra]
© LaCuerda.net · aviso legal · privacidad · es · en · pt · contacto
DINAMICO