Acordes de Guitarra » F »Fito Paez » Abre (Tab)

Abre
Fito Paez

Letras, Acordes y Tabs para Guitarra, Bajo y Ukulele

  • Intro:[ G C/G Cm/G G C/G Cm/G ]
          [ G G/B C C/B Am Am/G D ]
          [ Em D/F# G C Cm D ]
    
    
    F                         Eb
    Abre el mundo ante tus pies,
                    Bb
    abre todo sin querer.
                        C
    Abre el zen, la vanidad,
                    F
    abre la profundidad.
    
    Abren sexos en tu piel,
    abren cofres si querés.
    Abre el fuego si cantás,
                          G
    abre el mundo una vez más.
    
    
  • Intro:[G C/G G C/G][G G/B C C/B Am Am/G D]
          [Em D/F# G C Cm D]
    
    F                         Eb
     Abre el mundo ante tus pies,
                     Bb
    abre todo sin querer.
                         C
    Abre el zen, la vanidad,
                     F
    abre la profundidad.
    
    Abren sexos en tu piel,
    abren cofres si querés.
    Abre el fuego si cantás,
                           G
    abre el mundo una vez más.
    
    G                    F
     Abre el roce y el amor,
    
  • Acá esta la intro del tema
    
    INTRO	      
    1-------------------------------------I      
    2-------------------------------------I   
    3-------------------------------------I      
    4-------------------------------------I      
    5--12--13--15--------15--13-----------I      
    6-------------13--12----------15------I
    
    1-------------------------------------I
    2-------------------------------------I
    3--14---------------------------------I
    4-----12-13--16--15---13--12--15------I
    5-------------------------------------I
    6-------------------------------------I
    
    1-------------------------------------I      
    2-------------------------------------I   
    3-------------------------------------I      
    4-------------------------------------I      
    5--12--13--15--------15--13-----------I      
    6-------------13--12----------15------I
    
    1-------------------------------------I
    2-------------------------------------I
    3-------------------------------------I
    4--14----------14--12--14--12-----
  • 1I----------------------------------I
    2I----------------------------------I
    3I----------9h10-9-----------8h9----I
    4I-8-9-10-12---------12-9s10--------I
    5I----------------------------------I
    6I----------------------------------I
    
    1I---------------------------------I
    2I---------------------------------I
    3I---------7h8-7-4s5h4-7~----------I
    4I-7-9-10--------------------------I
    5I---------------------------------I
    6I---------------------------------I
    
    1I---------------------------------I
    2I---------------------------------I
    3I---------------------------------I
    4I---------9h10-9------------8h9---I
    5I-9-10-12---------12-9s10---------I
    6I---------------------------------I
    
    1I---------------------------------I
    2I---------------------------------I
    3I--------------------11s12--------I
    4I-7-9-10-7-7h5-5h7-5--------------I
    5I---------------------------------I
    6I---------------------------------I
    
    1I---------------------------------I
    2I-----------------9h10------------I
  • +
    ¡Colabora con nosotros!
    Envíanos tu versión de esta canción

Letra de Abre
Abre el mundo ante tus pies,
abre todo sin querer.
Abre el zen, la vanidad,
abre la profundidad.
Abren sexos en tu piel,
abren cofres si querés.
Abre el fuego si cantás,
abre el mundo una vez más.
Abre el roce y el amor,
se abren paso entre tú y yo.
Abre el miedo y el dolor,
abrís todo y entro yo.
Abre un cuerpo, se abre el sol,
abre dar también perdón.
Abre verse en realidad,
abre gritar de verdad.
Abre el rito de la fe,
abre el riesgo de perder.
Se abre solo mi ataúd,
abre el plexo en una cruz.
Abre drogas, abre amar,
abre besos, abre andar.
Abre hablar, abre callar,
abre el pulso del lugar.
Abre hacer e imaginar,
abre nunca interpretar.
Abre toda sensación,
abre música y color.
Abre el fin de la razón,
abre el cielo y el terror.
Abre un poco de piedad,
abre toda inmensidad.
Se abre el mundo ante tus pies,
abre todo sin querer.
Abre al fin la vanidad,
abre la profundidad.
Abren sexos en tu piel,
abre un cofre si querés.
Abre el fuego si cantás,
abre el mundo una vez más.
Fin:[ B E/B ] desvaneciéndose.




[Abre chords][Abre cifra]
© LaCuerda.net · aviso legal · privacidad · es · en · pt · contacto