Tablatura para Bajo de Fito & Fitipaldis: Por la boca vive el pez
Conexión · Inscripción
Letras y Acordes
Pantalla Completa
Imprimir
Versión Texto
Añadir Favorito
Otras Versiones

Mostrar Diagramas
Desfile Automático
Formato del Texto


Por la boca vive el pez(BAJ)

Fito & Fitipaldis

calidad:
f_fi0303
AUTOR: Fito Cabrales
ALBUM: Por la boca vive el pez (2006)
Enviado por sasha
Intro
G---------------------------|
D---------------------------|
A-----6-----8---3-3---3-3---| X2
E--4-4---6-6-------3-----3--|

Algo lo que me invade...             Sabes que soñare...
G---------------------------|        G---------------------------|
D---------------------------|        D---------------------------|
A-----6-----8---3-3---3-3---| X4     A-----8-----6---3-3---3-3---| X2
E--4-4---6-6-------3-----3--|        E--6-6---4-4-------3-----3--|

Este mar cada vez...
G---------------------------|
D---------------------------|
A-----6-----8---3-3---3-3---| X2
E--4-4---6-6-------3-----3--|

Tu eres aire yo papel...
G-----------------0-----0----------------0-----0--|
D---------------1-----1----------------1-----1----| X2
A--3-6---3-6--3-----3------3-6---2---3-----3------|
E4-----4-----------------4-----3---3--------------|

(Solo Saxo)
G-------------------------------------------------------------------|
D------5------------------------------------------------------------|
A--3-3---3-----6--------8----3-3---1-3-3---3-----6-----8--3-3---1-3-|
E----------4-4---4--6-6---6------3-------3---4-4---6-6--------3-----|

Dime por que preguntas...            Sabes que soñare...
G---------------------------|        G---------------------------|
D---------------------------|        D---------------------------|
A-----6-----8---3-3---3-3---| X4     A-----8-----6---3-3---3-3---| X2
E--4-4---6-6-------3-----3--|        E--6-6---4-4-------3-----3--|

Este mar cada vez...
G---------------------------|
D---------------------------|
A-----6-----8---3-3---3-3---| X2
E--4-4---6-6-------3-----3--|

No estas conmigo...
G-----------------------|
D-----------------------|
A-----------------------|
E--1-s-8---3-s-8-888888-|

Me he dado cuenta...
G--------------------00------00----------------------------00-------00--|
D------------------11--11--11--11------------------------11---11--11--11|
A-----33-----33--33------33--------22-55-22--22-55-22--33-------33------|
E11-44--44-11--44----------------33--------33---------------------------|

(solo guitarra)
G-------------------------------------------------------0-----0-|
D-----------------------------------------------------1-----1---| X2
A------3-----3--3---1-3---3---3-6---3-6---2-5---2-5-3-----3-----|
E--1-4---1-4------3-----3---4-----4-----3-----3-----------------|

(Solo Saxo y guitarra)
G------------------0-----0-----------------0-----0-|
D----------------1-----1-----------------1-----1---|
A------3---1---3-----3-------3-6---2-5-3-----3-----| X2
E--1-4---3---3-------------4-----3-----------------|

Final
G-------------------0-----0---------------|
D-----------------1-----1-----------------|
A-----3-6---2-5-3-----3-------3-6---2---3-|
E---4-----3-----------------4-----3---3---|


Si existe un Dios, es Fito sin duda.
Saludos a la gente de Villagarcia de Arosa.
Este fichero es trabajo propio de su transcriptor y representa su interpretación personal de la canción. El material contenido en esta página es
para exclusivo uso privado, por lo que se prohibe su reproducción o retransmisión, así como su uso para fines comerciales.

© LaCuerda.net · Aviso Legal · Privacidad