Tablatura para Guitarra de Fito & Fitipaldis: Cerca de las vias
Conexión · Inscripción
Letras y Acordes
Pantalla Completa
Imprimir
Versión Texto
Añadir Favorito
Otras Versiones

Mostrar Diagramas
Desfile Automático
Manipular Acordes
Formato del Texto


Cerca de las vias(TAB)

Fito & Fitipaldis

calidad:
f_fi0073
AUTOR: Adolfo Cabrales
ALBUM: Los Sue~os Locos (2001)
Enviado por Paul
ALBUM: Antes de que Cuente diez
Enviado por Paul

Acordes:D C9 G)


e[-----------------0-------3--------------------------------------
B[------------------3------3--------------------------------------
G[----2s4-2-0---0------0---0--------2s44-2-0---------------------- x3
D[--0-----------------2----0------0-------------------------------
A[------------3---------------0h2---------------------------------
E[-----------------------3----------------------------------------



e[-----------------0-------3--------------------------------------
B[------------------3------3--------------------------------------
G[----2s4-2-0---0------0---0--------------------------------------
D[--0-----------------2----0-------0h2----------------------------
A[------------3---------------0h2------0-2------------------------
E[-----------------------3----------------------------------------

e[-----------------0-------3--------------------------------------
B[------------------3------3--------------------------------------
G[----2s4-2-0---0------0---0--------2s44-2-0---------------------- x3
D[--0-----------------2----0------0-------------------------------
A[------------3---------------0h2---------------------------------
E[-----------------------3----------------------------------------

e[-----------------0-------3--------------------------------------
B[------------------3------3--------------------------------------
G[----2s4-2-0---0------0---0--------------------------------------
D[--0-----------------2----0-------0-2h4-2-0----------------------
A[------------3---------------0h2---------------------------------
E[-----------------------3----------------------------------------

C B7 Em e[-----0--------2-------0--------3----2--------------------------- B[------1--------0------0----------------------------------------- G[---0---0--------2-----0----2s4--2s4---2-0----------------------- D[--------2----1---1----2--0-------------------------------------- A[--3--------2----------2----------------------------------------- E[--------------------0------------------------------------------- e[-----------------0-------3-------------------------------------- B[------------------3------3-----------3-------------------------- G[----2s4-2-0---0------0---0--------2s4-2-0----------------------- D[--0-----------------2----0------0------------------------------- A[------------3---------------0h2--------------------------------- E[-----------------------3----------------------------------------
C9 G D C9 e[-----------------0----------------------2----2---------0-------- B[------------------3-------3------3------3-----3---------3------- G[----2s4-2-0---0------0-----0-0----0-0---2--2---2-----0-----0---- D[--0-----------------2-------0------0------------0---------2----- A[------------3------------2------2------------------3------------ E[-----------------------3-------3-------------------------------- e[----3--------------------------------------- B[----3-----------3--------------------------- G[----0--------2s4-2-0------------------------ D[----0------0-------------------------------- A[------ 0h2---------------------------------- E[--3-----------------------------------------
C B7 Em e[-----0--------2-------0--------3----2--------------------------- B[------1--------0------0----------------------------------------- G[---0---0--------2-----0----2s4--2s4---2-0----------------------- D[--------2----1---1----2--0-------------------------------------- A[--3--------2----------2----------------------------------------- E[--------------------0------------------------------------------- e[-----------------0-------3-------------------------------------- B[------------------3------3-------------------------------------- G[----2s4-2-0---0------0---0-------------------------------------- D[--0-----------------2----0-------0h2---------------------------- A[------------3---------------0h2------0-2------------------------ E[-----------------------3---------------------------------------- e[-----------------------3--------------------- B[-----------------------3--------------------- G[----2s4-2-0------------0--------------------- D[--0--------------------0--------------------- A[------------2-------------------------------- E[-------------------3-3----------------------- (solo de guitarra)
(D Cadd9 G) e[-----------------0-------3-------------------------------------- B[------------------3------3-------------------------------------- G[----2s4-2-0---0------0---0--------2s4-2-0----------------------- D[--0-----------------2----0------0------------------------------- A[------------3---------------0h2--------------------------------- E[---------------------------------------------------------------- e[-----------------0-------3-------------------------------------- B[------------------3------3-------------------------------------- G[----2s4-2-0---0------0---0-------------------------------------- D[--0-----------------2----0-------0-2h4-2-0---------------------- A[------------3---------------0h2--------------------------------- E[-----------------------3----------------------------------------
C B7 Em e[-----0--------2-------0--------3----2--------------------------- B[------1--------0------0----------------------------------------- G[---0---0--------2-----0----2s4--2s4---2-0----------------------- D[--------2----1---1----2--0-------------------------------------- A[--3--------2----------2----------------------------------------- E[--------------------0------------------------------------------- e[-----------------0-------3-------------------------------------- B[------------------3------3-------------------------------------- G[----2s4-2-0---0------0---0-------------------------------------- D[--0-----------------2----0-------0h2---------------------------- A[------------3---------------0h2------0-2------------------------ E[-----------------------3---------------------------------------- e[-----------------0-------3-------------------------------------- B[------------------3------3-------------------------------------- G[----2s4-2-0---0------0---0-------------------------------------- D[--0-----------------2----0-------0------------------------------ A[------------3---------------0h2----0-2-------------------------- E[-----------------------3---------------------------------------- e[------------------------------------------------------------- B[------------------------------------------------------------- G[----2s4-2-0-------------------------------------------------- D[--0---------------------------------------------------------- A[----------------3-------------------------------------------- E[---------------------3-5-5s7--------------------------------- Bueno Este es mi primera colaboración la saque por mis panas que me la pidieron espero seguir aportando con mas bueno cualquier duda o correcion
MI correo Adrian_17kross@hotmail.com .... k la disfruten jejejeje…
Este fichero es trabajo propio de su transcriptor y representa su interpretación personal de la canción. El material contenido en esta página es
para exclusivo uso privado, por lo que se prohibe su reproducción o retransmisión, así como su uso para fines comerciales.
© LaCuerda.net · Aviso Legal · Privacidad