Acordes de Guitarra » F »Fito & Fitipaldis » A la luna se le ve el ombligo (Tab)

A la luna se le ve el ombligo
Fito & Fitipaldis

Letras, Acordes y Tabs para Guitarra, Bajo y Ukulele

  • LAm              REm       MIm    LAm    REm    MIm
        No se cuanto tiempo habré perdido
        LAm                     REm    MIm    LAm     REm    MIm
        vivo tan deprisa que se cae de los bolsillos
    LAm            REm     MIm   LAm    REm    MIm
        a pesar de todo he aprendido
        LAm                      REm      MIm         LAm    REm    MIm
        si la noche es clara a la luna se le ve el ombligo
    
    
        MIm
        mira que a luna se le ve el ombligo
    
    
    DO             REm     MIm       LAm    REm    MIm
        Ojalá me hubiera dado cuenta antes
    REm                 DO    MIm        LAm    REm    MIm
        no siempre lo urgente es lo importante
    REm                 DO      MIm           LAm    REm    MIm
        tal vez son las brujas, tal vez el destino
    
  • e|-0-----------------1----0---------
    B|-1-----------------3----1---------
    G|-2-----------------2----2---------
    D|-2------2h0---0h2--0----2---------
    A|-0--0h3-----3-----------0---------
    E|----------------------------------
    
    e|------------------------0--------
    B|------------------------1--------
    G|-------------------1----2--------
    D|-------2h0---0h2---2----2--------
    A|---0h3-----3-------2----0--------
    E|-------------------0-------------
    
    *esto es el principio
    
    e|-----------------------------------0-
    B|---------------------------3xx-----1-
    G|---2-------0---------------2xx-----2-
    D|-----2-2h3---2------2h0----3xx-----2-
    
  • +
    ¡Colabora con nosotros!
    Envíanos tu versión de esta canción

Letra de A la luna se le ve el ombligo
No se cuanto tiempo habré perdido
vivo tan deprisa que se cae de los bolsillos
a pesar de todo he aprendido
si la noche es clara a la luna se le ve el ombligo
mira que a luna se le ve el ombligo
Ojalá me hubiera dado cuenta antes
no siempre lo urgente es lo importante
tal vez son las brujas, tal vez el destino
yo siempre me pierdo en el mismo camino
siempre en el mismo camino
Ahora sólo quiero estar contigo
todo mi universo está debajo de tu ombligo
Por tus huesos loco de remate
todos los molinos se convierten en gigantes.
Quisiera ser tan alto como la luna
mirar por tu ventana cuando estás desnuda.
Al pasar la barca me dijo el barquero
de Africa a Tarifa cuesta mucho más dinero
Mucho más dinero, mucho más dinero, mucho más dinero, mucho más dinero.
Ojalá me hubiera dado cuenta antes
no siempre lo urgente es lo importante
tal vez son las brujas, tal vez el destino
yo siempre me pierdo en el mismo camino
siempre en el mismo camino




[A la luna se le ve el ombligo chords][A la luna se le ve el ombligo cifra]
© LaCuerda.net · aviso legal · privacidad · es · en · pt · contacto