Acordes de Guitarra » F »Fernando Delgadillo » Trino (Tab)
  • Letra y Acordes
    Intro(D G Bm A)x2
    
     D              G                Bm                      A
    A donde fluya tu esplendente par, apresta el vuelo estoy contigo.
    
     D                G            Bm                   A
    tu la gaviota que surco mi mar, llevas silvando los avisos.
    
     D             G                 Bm                    A
    El cielo azul, una constante mas, la tierra firme que anduvimos.
    
     D                    G           Bm                         A
    es oro el sol que alimenta la faz, el aire es transparente y vivo.
    
    
    
    D                G         Bm                                 C-G
    Alguna voz seguro que dira: ¿por que has abierto las ventanas?
    
     D                  G               Bm                   C-G
    
  • Letra y Acordes
    Intro(D-Gsus*-D/Em1-D/Em2 )x2
    
     D              Gsus*             D/Em1                  D/Em2
    A donde fluya tu esplendente par, apresta el vuelo estoy contigo.
    
     D                Gsus*           D/Em1              D/Em2
    tu la gaviota que surco mi mar, llevas silvando los avisos.
    
     D+5           G+5                Gsus5               Gsus5*
    El cielo azul, una constante mas, la tierra firme que anduvimos.
    
    D                    Gsus*         D/Em1                    D/Em2
    es oro el sol que alimenta la faz, el aire es transparente y vivo.
    
    
    
    D                Gsus*       D/Em1                 D/Em2
    Alguna voz seguro que dira: ¿por que has abierto las ventanas?
    
    D                  Gsus*       D/Em1           D/Em2
    
  • Tablatura
    Intro y sax de acompañamiento
    
    E -0-4-7-777/5-5-4-2----------4----------54-------------
    b -------------------555/4-57--5-555/4-57--7-5-5-4-1/2---
    g ------------------------------------------------4---
    
    E ------4---5p4p2---- --9p5-------- --------------------
    b -2h4h5-----------5- -----7--12-9- -5h7p5-7-5-7-12-9-5-
    g ------------------- ------------- --------------------
    
    E ------------------ ----------    ------------ -12-11-7-----------
    b -9—-910-9--------7 ----------    9-10p9-----  ---------9-1010/12--
    g --9------9------7-  77h5-7-5h7-9  ------11-99- --------------------
    d ---9------77h9-7--  ------------- ------------ --------------------
    
    E ---------------12 ----------------------------------------
    b -------7-9—12/9-- -------------7------------7/9-7-10-12-9--
    g –-9h8-9---------- --7-99-9-7h89---7-99-9-7-9---------------
    d -7--------------- -9------------9-------------------------
    
    E ------------------------------------------------------7-8--7--10-8--
    b --7-777-7---9p7-7-9-----
  • +
    ¡Colabora con nosotros!
    Envíanos tu versión de esta canción

Letra de Trino
A donde fluya tu esplendente par, apresta el vuelo estoy contigo.
tu la gaviota que surco mi mar, llevas silvando los avisos.
El cielo azul, una constante mas, la tierra firme que anduvimos.
es oro el sol que alimenta la faz, el aire es transparente y vivo.
Alguna voz seguro que dira: ¿por que has abierto las ventanas?
pero la vida siempre vino a dar lo que se da cada mañana.
no sabes tu cuanto lo vengo viendo, no se decirlo y no lo intento;
pero me dio tu encuentro un don mejor, que no citaban los acuerdos.
ayer amamos, liberamos hoy y todo tiene otro sentido.
tan compañero de tu libertad, suelto tu velo suspendido.
mi arena entre tus pies persistira, mis trazos blancos no se borran.
y un mensaje en el viento llevara hasta ti mi voz, mas tu:
vuela y remonta, vuela y remonta
Eso fue todo esta muy sencilla y espero les aya gustado nos vemos pronto.
cualquier duda no duden en comunicarse a mi correo
zeuscronos_man@hotmail.com



© LaCuerda.net · aviso legal · privacidad · contacto