Acordes de Guitarra » F »Fernando Delgadillo » Puede que pueda (Tab)

Puede que pueda
Fernando Delgadillo

Letras, Acordes y Tabs para Guitarra, Bajo y Ukulele

  • Intro   D  F#m7  G-D/F#-Em-A#
    
            D  F#m7  G  A7
    
                D                 F#m7            G                 A7
    Y SI ALGÚN DÍA YO TE DIJE QUE MECER MIS HOJAS NO ERA COSA FÁCIL
                               D                  F#m7
    Y TÚ LO HICISTE CON LAS GANAS BIEN SEGURAS DE ALZAR LO PROPIO,
    G      A7              D                    F#m7             G
    CÓMO… PUDISTE HACERME CAMBIAR ASÍ, PUDISTE HACERME PARTE DE TI
                  A7                            D           F#m7     G A7
    DE TAL MANERA QUE PARECIÓ PRIMAVERA ESTOS DOS AÑOS DE ESTACIÓN.
                D                         F#m7          G              A7
    CUANDO DESPUÉS DE TANTO VERSO ME ENTREGASTE EL SÍ CON CUERPO Y ALMA,
                           D              F#m7          G             A7
    NO DILATAMOS EN VER QUÉ TENÍA DE GRANDIOSO AMARSE Y ERA MÁS ALLÁ
                             Bm             F#m                G
    DE LO PRESCRITO POR QUIEN DICE CONOCERLO TODO, CONOCERSE EN SÍ
                    A7                   D  F#m7   G   A7
    Y QUÉ BIEN POCO TE CONOCÍA A TI…
    
  • D                               F#m7-F#m7?       G          A7-A7/B-A7/C#
    Y si algún día yo te dije que mecer mis hojas no era cosa fácil
    
                          D                       F#m7-F#m7?            G
    Y tú lo hiciste con las ganas bien seguras de alzar lo propio,
    
          A7-A7/B-A7/C#        D               F#m7-F#m7?    G          
    Cómo… pudiste hacerme cambiar así, pudiste hacerme parte de ti
    
                         A7-A7/B-A7/C#          D           F#m7-F#m7?   -  G    -  A7-A7/B-A7/C#
    De tal manera que pareció primavera estos dos años de estación.
    
                    D                         F#m7-F#m7?    G              A7-A7/B-A7/C#
     Cuando después de tanto verso me entregaste el sí con cuerpo y alma,
    
                           D              F#m7-F#m7?       G             A7-A7/B-A7/C#
      No dilatamos en ver qué tenía de grandioso amarse y era más allá
    
                             Bm             F#m                G
    De lo prescrito por quien dice conocerlo todo, conocerse en Sí
    
  • -      SI te gusta LA trova y quieres tener contacto con tu humilde
            servidor escribir a: caraug85@yahoo.com.mx
    -      Saludos a Tepatepec Hgo!!!!! cuna de la música.
    
    
    =========================INTRO==================================
    
     los números que estén encerrados con unos ||, son rasgueados
    
    
       D            F#m                  G-F#m-Em    A
    |e|-3--3-------—---------|2|-|2|—|2|--3--2--0----|0|-|0|-|0|-
    |B|------2---2-------2---|2|-|2|-|2|--3--2--0--0-|2|-|2|-|2|-
    |G|-3------3---3---2-----|2|-|2|-|2|--4--2--0----|2|-|2|-|2|-
    |D|--------------------4-------------------------|2|-|2|-|2|-
    |A|----------------------------------------------|0|-|0|-|0|-
    |E|--------------2--------------------3--2--0----------------
    
      ESTA PARTE SE REPITE DOS VECES:
        D                     F#m                     G
    
  • F Am7 A#-A#/A Gm C#
    
    F Am7 A# C7 G7sus4 A7sus4
    
                F                   Am7                  A#
    Y si algún día yo te dije que mecer mis hojas no era cosa fácil
    C7    G7sus4 A7sus4
    Y tú lo hiciste
             F                      Am7
    con las ganas bien seguras de alzar lo propio,
      A#   C7   G7sus4 A7sus4  F                 Am7              A#
    Cómo… pudiste hacerme cambiar así, pudiste hacerme parte de ti
                         C7   G7sus4 A7sus4        F
    De tal manera que pareció primavera estos dos años
            Am7  A# C7 G7sus4 A7sus4
    de estación.
                F                         Am7
    Cuando después de tanto verso me entregaste el sí
          A#                C7     G7sus4 A7sus4
    con cuerpo y alma, no dilatamos
    
  •   RE               FA#m          SOL  RE  LA
    |-2--2-------2-----------2--------3---2---0
    |-3--3-----3---3-------2-----2----3---3---2
    |-2--2--2--------2---2-----2---2--0---2---2
    |------------------------------------------
    |------------------0-----------------------
    |------------------------------------------
    
    
      RE               FA#m          SOL 
    |-2--2-------2-----------2-------------3------
    |-3--3-----3---3-------2-----2-------3-----3--
    |-2--2--2--------2---2-----2---2---0-----0---0
    |---------------------------------------------
    |------------------0--------------------------
    |---------------------------------3-----------
    
      LA
    |---------------|   Apartir de aqui la cancion sigue 
    |-----2-----2---|   con la secuencia de acordes Re , 
    
  • E-----------------------------------------------------------|
    A-----------------------------0-----------------------------|
    D-----------------------------------------------------------|
    G-----2-----------2-------2-------2------2---2---0----2--2--|
    B-----3-------------3---3-----------2------2-----3----3--2--|
    e-----2-----2---------2---------------2----------3----2--0--|
    
    
    E------------------------------------------------3----------------|
    A-----------------------------0-----------------------------------|
    D-----------------------------------------------------------------|
    G-----2-----------2-------2-------2------2---2-------0------0---0-|
    B-----3-------------3---3-----------2------2-----------3------3---|
    e-----2-----2---------2---------------2------------------3--------|
    
    
    E--------------------------------|
    A-----0--------2----------4------|
    D--------------------------------|
    G--------2---------2-------------|
    
  • Ok aki sta el intro y el solo de Puede que Pueda.
    
    Se Ve complicado, y la verdad asi se ve más, pero escribanme
    y les doy el archivo del Power Tab para k se vea mejor
    (pueden bajar el programa de http://powertab.guitarnetwork.org)  _
    sta bien chido el programa, ok eso es todo, ah este simbolo:    / \ significa 'Bend'
    si no saben k es escribanme
    
    Gtr I(Delgadillo)
    Gtr II(Ceja)
    
    INTRO:
    
      Gtr I
    1|-2-(2)-2---0h2-----|---2-(2)-2-(2)-2-----|
    2|---------3-----3---|---2-(2)-2-(2)-2-2---|
    3|-----------------2-|---2-(2)-2-(2)-2---2-|
    4|-0-(0)-------------|---------------------|
    5|-------------------|---------4-----------|
    6|-------------------|-2-------------------|
     |                                         |
     | Gtr II                                  |
    6|-------------------|---------------------|
    5|-------------------|---------------------|
    4|-------------------|---------------------|
    3|-------------------|---------------------|
    2|-------------------|---------------
  • +
    ¡Colabora con nosotros!
    Envíanos tu versión de esta canción

Letra de Puede que pueda
Y SI ALGÚN DÍA YO TE DIJE QUE MECER MIS HOJAS NO ERA COSA FÁCIL
Y TÚ LO HICISTE CON LAS GANAS BIEN SEGURAS DE ALZAR LO PROPIO,
CÓMO… PUDISTE HACERME CAMBIAR ASÍ, PUDISTE HACERME PARTE DE TI
DE TAL MANERA QUE PARECIÓ PRIMAVERA ESTOS DOS AÑOS DE ESTACIÓN.
CUANDO DESPUÉS DE TANTO VERSO ME ENTREGASTE EL SÍ CON CUERPO Y ALMA,
NO DILATAMOS EN VER QUÉ TENÍA DE GRANDIOSO AMARSE Y ERA MÁS ALLÁ
DE LO PRESCRITO POR QUIEN DICE CONOCERLO TODO, CONOCERSE EN SÍ
Y QUÉ BIEN POCO TE CONOCÍA A TI…
acompañado del solo de gonzalo
Y SI ALGÚN DÍA TE DIJERA TE FIJASTE CÓMO SE NOS FUE LA SONRISA
Y SE QUEDÓ EL RECUERDO DE ESAS TARDES DE RIVERA CON EL SOL EN RAYA
¡QUÉ TIEMPOS… QUÉ DÍAS FELICES!
COMO FUESE NO ME ACUERDO, NI QUIERO ACORDARME, PERO EL SOL ME DIO
A MEDIA CARA, CONFINÁNDOME A OLVIDO, SIN BUSCAR TU NOMBRE
Y A LLORAR CONTIGO…
SI HAY UN REENCUENTRO UN MAL DÍA DE ESTOS PUEDE…
PUEDE QUE PUEDA SER ………
en la nota de D los bajos son D - A - D
en el acorde de F#m7 el bajo la hace C#
la nota de G es normal
en la nota de A7 se hace una caida de B y C#
en la parte del cambio de A7 a Bm
se hace un martillo que todavia no encuentro
y no se toca la caida de los bajos B y C#
en el puente la nota C y G tambien hace un martillo
y por ultimo la nota de C9 es solo en bajo
A (3) este es*
y los * en la no ta se deben tocar con cejilla




[Puede que pueda chords][Puede que pueda cifra]
© LaCuerda.net · aviso legal · privacidad · es · en · pt · contacto