Letra y Acordes de Extremoduro: Tiempo Perdido
Conexión · Inscripción
Letras y Acordes
Pantalla Completa
Imprimir
Versión Texto
Añadir Favorito
Otras Versiones

Mostrar Diagramas
Desfile Automático
Manipular Acordes
Formato del Texto


Tiempo Perdido

Extremoduro

calidad:
extr0601
AUTOR: Roberto Iniesta
ALBUM: ?¿
Enviado por Adrián
Otra cancion rara de extremo, es un directo, 
esta guapa y además es facilona...


Algunas veces todos perdemos el tiempo.... Esto es tiempo perdido...

e|--------------------------------------------------------|
B|--3-1--------3-1--------3-1----------------6------------|
G|------3-0-0------3-0-0------3--5-3-5-3-5/7----7-5-3-----|
D|--------------------------------------------------------|
A|--------------------------------------------------------|
E|--------------------------------------------------------|

e|-------------------------------------------------|
B|--3-1--------3-1---------3-1---------------------|
G|------3-0-0------3-0-0-------3--2-3-5-3-2-0-3----|
D|-------------------------------------------------|
A|-------------------------------------------------|
E|-------------------------------------------------|

G Me surge el miedo, lo veo todo de lado Se que los locos lo ven todo mas claro
C D# C Me gustaría mucho mas Parar no puedo el tiempo con mis manos Sino supiera que estoy tan atrapado Me gustaria mucho mas
G A# Y asi, paso las horas dandole vueltas
C D no se que hago aquí
G A# Y al fin doy media vuelta y pienso
C A que todo esta echo para mi Y asi paso la vida viendo de cerca Ya no intento huir Y al fin doy media vuelta y pienso Que todo esta echo para mi. Punteo Un perchas dice que pienso demasiado Y de andar juntos cree que se lo he pegado Que ahora ya duda mucho mas Parar no puedo el tiempo con mis manos Sino supiera que estoy tan atrapado Me gustaria mucho mas Y asi, paso las horas dandole vueltas no se que hago aquí Y al fin doy media vuelta y pienso que todo esta echo para mi Y asi paso la vida viendo de cerca Ya no intento huir Y al fin doy media vuelta y pienso Que todo esta echo para mi.
Este fichero es trabajo propio de su transcriptor y representa su interpretación personal de la canción. El material contenido en esta página es
para exclusivo uso privado, por lo que se prohibe su reproducción o retransmisión, así como su uso para fines comerciales.

© LaCuerda.net · Aviso Legal · Privacidad