Acordes de Guitarra » E »Eva » Ira (Tab)

Ira
Eva

Letras, Acordes y Tabs para Guitarra, Bajo y Ukulele

  •  (distortion toda la cancion) 
    introduccion
    E||-------------------------------------------------|
    B||-------------------------------------------------|
    G||-------------------------------------------------|
    D||--2-2-2-2-2-2-2-2-2-2-2-2-2-7-7-5-5-5-5-5-5-5-5-5|
    A||--2-2-2-2-2-2-2-2-2-2-2-2-2-5-5-3-3-3-3-3-3-3-3-3|
    E||--0-0-0-0-0-0-0-0-0-0-0-0-0----------------------| ( x 2)
    
    
     soy un ser de invierno....  
           ( x 3)
    E||-------------------|------------------------------|
    B||-------------------|------------------------------|
    G||---------------5-4-|------------------------------|
    D||-2-2-x--2-x--2-3-2-|-7-7-7---5-5-5-0--------------|
    A||-2-2-x--2-x--0-----|-5-5-5-0-3-3-3-0--------------|
    E||-0-0-x--0-x--0-----|------------------------------|
     
    
    coro:
      ya saldra del cuerpo toda mi ira.....
             ( x 3)                    
    E||----------------------------|---------------------|
    B||----------------------------|---------------------|
    G||---------------------7-4
  • +
    ¡Colabora con nosotros!
    Envíanos tu versión de esta canción



Video de Ira
[]




[Ira chords][Ira cifra]
© LaCuerda.net · aviso legal · privacidad · es · en · pt · contacto