Tablatura para Bajo de Enanitos Verdes: el Guerrero
Conexión · Inscripción
Letras y Acordes
Pantalla Completa
Imprimir
Versión Texto
Añadir Favorito
Otras Versiones

Mostrar Diagramas
Desfile Automático
Formato del Texto


el Guerrero(BAJ)

Enanitos Verdes

calidad:
enan0268
AUTOR: Horacio Gomez
ALBUM: Traccion Acustica (1997)
Enviado por xHugox
La anterior estaba bien solo en la tonica, pero le faltaba el resto

Intro..

G-------------------------------------------------------------------|
D-------------------2-------2---------------------------------------|
A--2-------2----------2--5----2--5----4--7----4--7--2-------2-------|
E----2--5-----2--5------------------5-------5---------2--5----2--5--|


Verso...

G--------------------------------------------------------------------|
D------------------2-------2-----------------------------------------|
A--2-------2---------2--5----2--5----4--7----4--7--2-------2---------|
E----2--5----2--5------------------5-------5---------2--5----2--5----|

Coro...

G------------------------------------|
D--2---------------------------------|
A----2--5----4--7--2-------2---------|  x2
E----------5---------2--5----2--5----|

(pausa)

G------------------------------------|
D--2---------------------------------|
A----2--5----4--7--2-------2---------|  x2
E----------5---------2--5----2--5----|

Sólo..

G-------------------------------------------------------------------|
D-------------------2-------2---------------------------------------|
A--2-------2----------2--5----2--5----4--7----4--7--2-------2-------|
E----2--5-----2--5------------------5-------5---------2--5----2--5--|


Verso..

G-------------------------------------------------------------------|
D-------------------2-------2---------------------------------------|
A--2-------2----------2--5----2--5----4--7----4--7--2-------2-------|
E----2--5-----2--5------------------5-------5---------2--5----2--5--|

Coro...

G------------------------------------|
D--2---------------------------------|
A----2--5----4--7--2-------2---------|  x6
E----------5---------2--5----2--5----|

Solo final…

G-------------------------------------------------------------------|
D-------------------2-------2---------------------------------------|
A--2-------2----------2--5----2--5----4--7----4--7--2-------2-------|
E----2--5-----2--5------------------5-------5---------2--5----2--5--|

Cualkier consulta a anonimoforlife@hotmail.com
Este fichero es trabajo propio de su transcriptor y representa su interpretación personal de la canción. El material contenido en esta página es
para exclusivo uso privado, por lo que se prohibe su reproducción o retransmisión, así como su uso para fines comerciales.

© LaCuerda.net · Aviso Legal · Privacidad