Acordes de Guitarra » E »Enanitos Verdes » Cordillera (Tab)

Cordillera
Enanitos Verdes

Letras, Notas, Punteos, Tablaturas y Acordes de Guitarra (Tabs & Chords)

  • Letra y Acordes
    Intro   Am  G Am  (2) Am  G  Dm  Am  E   Am  G  Dm  Am  /G#  Am  E
    
    
      Am                 G
    Quién te ha visto quién te ve,
           Am                G
    en la cordillera de los andes,
      Am         G            Am    G
    nunca me dejaste sorprender.
    
    Viento blanco que más da,
    que por mí pueden pasar las horas,
    quiero estar contigo un tiempo más.
    
    Inter Am  G  Dm   Am  E
    
    PRE 1
    Am        G              Am
    Y así podrán pasar los años,
    Am      G             Am   G
    
  • Tablatura
       Am           G              Am
    e---5-5-5--5-5--3--3-3-3--3-3--5---5-5-5--5-5--3--3-3-1-0------
    B--5-5----5-5-----3-3----3-3------5-5----5-5-----3-3------3-1--
    G--------------------------------------------------------------
    
    Riff 2
         Am           G            Dm              Am      E
    e-----8-7-5-------7-5------------------------------------------
    B--555-----5--555-----8--------10-8-6-8/10-10--5------5--------
    G-----------------------7--777------------------5----5-7-4-----
    D------------------------------------------------7--7-----6----
    A--------------------------------------------------------------
    E--------------------------------------------------------------
    
    Riff 3
              Am                    G                 Dm
    e---------12-10----------------10-------------------------------------
    B-10-10-10------13-10--10-10-10---13-12------------13-12-10-12/13-13--
    G--------------------------------------12--12-12-12-------------------
    D---------------------------------------------------------------------
    
  • Tablatura
    e |-------8-7-5---|-------7-5-----|-------5---------|
    B |-5-5-5-------5-|-5-5-5-----8---|---------6-6-8-8-|
    G |---------------|-------------7-|-7-7-7-----------|
    D |---------------|---------------|-----------------|
    A |---------------|---------------|-----------------|
    E |---------------|---------------|-----------------|
    
    e |-----------------|
    B |-5-------5-------|
    G |---5---5---7-----|
    D |-----7-------8-6-| X 2 veces
    A |-----------------|
    E |-----------------|
    
    Am                 G
    Quien te ha visto quien te ve
    Am                 G
    En la Cordillera de los Andes
    Am             G        Am    G
    Nunca me dejaste sorprender
    
  • Tablatura
    Am                 G
    Quien te ha visto quien te ve
    Am                 G
    En la Cordillera de los Andes    aauuuumm
    Am          G           Am      G
    Nunca me dejas de sorprender
    
    Am             G
    Viento blanco que más da
    Am                 G
    que por mí pueden pasar las horas
    Am               G             Am
    quiero estar contigo un tiempo más  yeeaahh
    
    1/---------8-7-5----------7-5-3-----------5s8-7--------------
    2/--5-5-5--------5--5-5-5-------3--3-3-3---------8-10s13-13--
    3/-----------------------------------------------------------
    4/-----------------------------------------------------------
    5/-----------------------------------------------------------
    6/-----------------------------------------------------------
    
  • Tablatura
            Am                                G
    
    E----------------------------------------------|---------------------
    A----------------------------------------------|---------------------
    D----------------------10----------------------|---------------------
    G----8h9-b---9-8-7------7/9---------------7----|--7/9-------9-7-5--
    B--------------------------------10b-12------8b|--------10b--------
    E------------------------------------------------------------------
    
           Dm                                                       Am
    
    E------------------------------------------------T-----T--------T--|
    A--------------------T-------T-----------------7(12)-5(12)---7(12)-|
    D------------T---7(12)-5-(12)---5h7p5-12---------------------------|
    G-5h7p5-12---------------------------------------------------------|
    B------------------------------------------------------------------|
    E------------------------------------------------------------------|
    
           E7
    E-------------------------------------------------------|
    
  • Tablatura
    e |---------------------------|-----------------------|
    B |----10---10-10---10---10-9-|----9---9-9---9---9*10-|
    G |-9-----9-------9----9------|-9----9-----9---9------|
    D |---------------------------|-----------------------|
    A |---------------------------|-----------------------|
    E |---------------------------|-----------------------| X2
    Despues de tocar esta parte dos veces se toca esto de abajo
    e |--------------------|
    B |---9-10-11-10-9-8-7-|
    G |-9------------------|
    D |--------------------|
    A |--------------------|
    E |--------------------|
    ESTA PARTE SE TOCA 2 VECES
    
    e |-------8-7-5---|-------7-5-----|-------5---------|
    B |-5-5-5-------5-|-5-5-5-----8---|---------6-6-8-8-|
    G |---------------|-------------7-|-7-7-7-----------|
    D |---------------|---------------|-----------------|
    A |---------------|---------------|-----------------|
    
  • Tab p/Bajo
    Esta es mi primera transcripción,
    es para bajo de 5 cuerdas.
    Si quieren tocarlo con uno de 4,
    escuchen el tema en el disco En Vivo (2004).
    
    Intro: 00:24
    
    G|---------------------------------------------|
    D|---------------------------------------------|
    A|---------------------------------------------|
    E|--5--5---3-5--5---5-3--3---1-3--3---3------5-|
    B|-------5--------5--------3--------3---3--3---|
    
    
    G|--------------------------|  ----------------|
    D|--------------------------|  ----------------|
    A|-3-5--5---3----3-5-77-----|x2----------------|
    E|--------5---55--------765-|  ----------------|
    B|--------------------------|  --5-------------|
    
    Estrofas: 00:49
    
    G|---------------------------------------------|
    D|---------------------------------------------|
    A|---------------------------------------------|
    E|--5--5---5-3--3----33------------------------|
    B|-------5--------33---------------------------|
    
    Intro: 1:10
    
    Estrofas: 1:21
    
    “Y así podrán pasar los años…”
    G|---------------------
  • +
    ¡Colabora con nosotros!
    Envíanos tu versión de esta canción

Letra de Cordillera
Quién te ha visto quién te ve,
en la cordillera de los andes,
nunca me dejaste sorprender.
Viento blanco que más da,
que por mí pueden pasar las horas,
quiero estar contigo un tiempo más.
PRE 1
Y así podrán pasar los años,
y yo tomar mil direcciones,
sé que he dejado un mundo atrás,
siguiendo siempre un ideal,
como un valiente cazador, de las estrellas.
Se vive la libertad, se siente la libertad,
te envuelve la magia del lugar.
Se vive la libertad, se siente la libertad,
te envuelve la magia del lugar.
Quien te ha visto quien te ve,
en la cordillera de los andes,
nunca me dejaste sorprender.
Viento blanco que más da,
que por mí pueden pasar las horas,
quiero estar aquí un tiempo más.
PRE 2
Hay una nube pasajera,
tocando los picos nevados,
sé que he dejado un mundo atrás,
siguiendo siempre un ideal,
como un valiente cazador, de las estrellas.
Se vive, se siente, te envuelve, la magia del lugar.
Se vive, se siente, te envuelve, la magia del lugar.



© LaCuerda.net · Aviso Legal · Privacidad