Acordes de Guitarra » E »Enanitos Verdes » el Guerrero (Tab)

el Guerrero
Enanitos Verdes

Letras, Acordes y Tabs para Guitarra, Bajo y Ukulele

  •              Bm         Em
    Algun tiempo atras, en cualquier lugar
    A                                           Bm
    Murio una mujer y el unico testigo fue el viento
    
    El mon que bajo de la luna me dijo
    Em                 
    Si no hay amor tendras la fortuna
    A
    Dos cosas distinctas, los suen~os y el destino final
    
    
    coro:
    
            Em    A        Bm
    Ya se marcho, no volvera
    Em             A                      Bm  
    Un buen guerrero, no vuelve la vista atras
            Em    A         Bm
    Ya se marcho, no volvera
    
  • INTRO: Bm - Em - A - Bm
    
      Bm
    Algun tiempo atras
            Em
    en cualquier lugar
       A                                        Bm
    murio una mujer y el unico testigo fue el viento
    
    
    El moro que bajo de la luna
           Em
    si no hay amor tendras la fortuna
         A                                        Bm
    dos cosas distintas un sueño y el destino final
    
    CORO:
               Em   A
    ya se marcho
             Bm
    
  •             Bm            Em            A            Bm
    E---5-7-9-7-5-----5-7-9-7-5-----5-7-9-7-5----5-7-9-7-5---
    B-7-----------7-7-----------8-8-----------8-8----------7-
    G--------------------------------------------------------
    D--------------------------------------------------------
    A--------------------------------------------------------
    E--------------------------------------------------------
    
      Bm                   Em
    Algun tiempo atrás en algun lugar
     A                                            Bm
    murio una mujer y el unico testigo fue el viento
      Bm
    el moro que bajó de la luna me dijo
       Em
    si no hay amor tendrás la fortuna
        A                                          Bm
    dos cosas distintas, los sueños y el destino final
    
             Em  A           Bm
    
  •               Bm            Em            A            Bm
    E---5-7-9-7-5-----5-7-9-7-5-----5-7-9-7-5----5-7-9-7-5---
    B-7-----------7-7-----------8-8-----------8-8----------7-
    G--------------------------------------------------------
    D--------------------------------------------------------
    A--------------------------------------------------------
    E--------------------------------------------------------
    
      Bm                   Em
    Algun tiempo atrás en algun lugar
     A                                            Bm
    murio una mujer y el unico testigo fue el viento
      Bm
    el moro que bajó de la luna me dijo
       Em
    si no hay amor tendrás la fortuna
        A                                          Bm
    dos cosas distintas, los sueños y el destino final
    
             Em  A           Bm
    
  • B:I------------------------10~----------I 
    G:I----------7s9-7---9s11-------9p7-9~--I 
    D:I-----7-9-----------------------------I 
    A:I-7h9---------------------------------I 
    E:I-------------------------------------I 
    
    e:I--------------7-9-10s12-10-9-------I--------------------------I 
    B:I-------7-8-10----------------10----I--------------------------I 
    G:I---7-9--------------------------9~-I-9--11-11--11--11s\9--9~--I 
    D:I-9---------------------------------I--------------------------I 
    A:I-----------------------------------I--------------------------I 
    E:I-----------------------------------I--------------------------I 
    
    e:I-------12h14~-12-10--11-12-11-10---------I 
    B:I-----12--------------------------12-10~--I 
    G:I---12------------------------------------I 
    D:I-14--------------------------------------I 
    A:I-----------------------------------------I 
    E:I-----------------------------------------I 
    
    
  •  Bm                                   
    algun tiempo atras   
    1--7----------------------------------
    2--7----------------3/5H7-------------
    3--7----------------------6*7-4-------
    
    Em
    en cualquier lugar  
    1--7-----------------3/5-3-0-3-2-----
    2--8---------------------------------
    3--9---------------------------------
    
    A  (casilla #1)
    murio una mujer y el unico testigo fue el viento
    1--5--------------------------------------7--7--7--7------
    2--5----------------------3/5/7-------------7--7--7--7----
    3--6-------------2/4H7-6----------------------7--7--7--7---
    4----------------------------------------------------------
    
    Bm                                  Em
    
  • La anterior estaba bien solo en la tonica, pero le faltaba el resto
    
    Intro..
    
    G-------------------------------------------------------------------|
    D-------------------2-------2---------------------------------------|
    A--2-------2----------2--5----2--5----4--7----4--7--2-------2-------|
    E----2--5-----2--5------------------5-------5---------2--5----2--5--|
    
    
    Verso...
    
    G--------------------------------------------------------------------|
    D------------------2-------2-----------------------------------------|
    A--2-------2---------2--5----2--5----4--7----4--7--2-------2---------|
    E----2--5----2--5------------------5-------5---------2--5----2--5----|
    
    Coro...
    
    G------------------------------------|
    D--2---------------------------------|
    A----2--5----4--7--2-------2---------|  x2
    E----------5---------2--5----2--5----|
    
    (pausa)
    
    G------------------------------------|
    D--2---------------------------------|
    A----2--5----4--7--2-------2---------|  x2
    E----------5---------2--5----2--5----|
    
    Sólo
  • Intro de acordeón 
    
    Fa# la si do# si la fa#   
    
    fa# la si do# si la sol
    
    Sol la si do# si la sol    
    
    sol la si do# si la fa#
    
    
    Sim	Mim
    Algún tiempo atrás      en cualquier lugar
    Fa# si   re re     si          si si re do#   si
    
    La                                                  Sim
    Murió una mujer y el único testigo fue el viento
    La la la  fa# si la la la la fa# si la fa# mi fa#
    
    Sim
    El moro que bajo de la luna me dijo
    Fa# si si  si  la si  si la si si la si la
    
    Mim
    Si no hay amor tendrás la fortuna
    La si si si si si si si re do# si
    
    La	Sim
    Dos cosas distintas dos sueños y el destino final
    La la la fa# si la la la la la  fa# si la fa# mi fa# mi fa#
    
    	Mim       La	Sim
    Ya se marcho        no volverá
    Re do# si sol	re do# la si
    
    Sim	Mim	La
    Un buen guerrero no vuelve la vista atrás
    Fa# la la la sol fa# sol sol la fa# mi fa#
    
    	Mim       La	Sim
    Ya se marcho        no volverá
    Re do# si sol	re do# la si
    
    
    
    
    Mim                      La   
  • +
    ¡Colabora con nosotros!
    Envíanos tu versión de esta canción
  • Tutorial
    HD
    COMO TOCAR EL GUERRERO DE ENANITOS VERDES
    3:20
  • Tutorial
    HD
    Como tocar el guerrero de enanitos verdes
    2:41

Letra de el Guerrero
Algun tiempo atras, en cualquier lugar
Murio una mujer y el unico testigo fue el viento
El mon que bajo de la luna me dijo
Si no hay amor tendras la fortuna
Dos cosas distinctas, los suen~os y el destino final
Ya se marcho, no volvera
Un buen guerrero, no vuelve la vista atras
Ya se marcho, no volvera
Bajando el rio, son~ando con crusar el mar
verso 2:
Algun tiempo atras, sin rumbo sin mas
Un hombre encontro el rastro del amor en un suen~o
Las piedras del camino le dieron la clave, la muerte no termina con todo
Dos cosas distinctas, los suen~os y el destino final
Ya se marcho, no volvera
Un buen guerrero, no vuelve las vista atras
Ya se marcho, no volvera
Bajando el rio, son~ando con crusar el mar
Ya se marcho...........(ect.)




[el Guerrero chords][el Guerrero cifra]
© LaCuerda.net · aviso legal · privacidad · es · en · pt · contacto