Acordes de Guitarra » E »Enanitos Verdes » Dame otra oportunidad (tracción acústica) (Tab)

Dame otra oportunidad (tracción acústica)
Enanitos Verdes

Letras, Acordes y Tabs para Guitarra, Bajo y Ukulele

  • e-----------------------------------------------------------------------
    B--5-3/5---2/3--3/5---------3-5-5/6-5-3--5-3/5---2/3--3/5--5------------
    G--5----5-4--------5-5---4/5-----------5-5----5-4--------5-5------------
    D--5-------------------------------------5-----------------5------------
    A-----------------------------------------------------------------------
    E-----------------------------------------------------------------------
    
    e-----------10-7---------------------------------------------
    B---------------10/8-10--8-8-8-10----------------------------
    G--9-9-10-12---------------------9*7-------------------------
    D-----------------------------------10-----------------------
    A------------------------------------------------------------
    E------------------------------------------------------------
    
    e-----------10-7-7-------------------------------------------
    B-----------------13-13-15-13-12-13-12-10-12*10-10*7-7-------
    G--9-9-10-12-------------------------------------------------
    D------------------------------------------------------------
    A------------------------------------------------------------
    E------------------------------------------------------------
    
  • ASI VA EL INTRO: con los acordes ( C Em Dm G) 2 veces
    
    e-----------------------------------------------------------------------
    B--5-3/5---2/3--3/5---------3-5-5/6-5-3--5-3/5---2/3--3/5--5------------
    G--5----5-4--------5-5---4/5-----------5-5----5-4--------5-5------------
    D--5-------------------------------------5-----------------5------------
    A-----------------------------------------------------------------------
    E-----------------------------------------------------------------------
    
    e-----------10-7---------------------------------------------
    B---------------10/8-10--8-8-8-10----------------------------
    G--9-9-10-12---------------------9*7-------------------------
    D-----------------------------------10-----------------------
    A------------------------------------------------------------
    E------------------------------------------------------------
    
    e-----------10-7-7-------------------------------------------
    B-----------------13-13-15-13-12-13-12-10-12*10-10*7-7
  • INTRO [C Em Dm G] x 2
    
    
    E --------------------------------------------------------------------
    B ----5-3/5----2/3---3/5--------5/6--5---3----------------------------
    G ----5-----5-----------5---555------------5--------------------------
    D ----5----- 5--------------------------------------------------------
    A --------------------------------------------------------------------
    E --------------------------------------------------------------------
    
    E --------------------------------------------------------------------
    B ------3/5----2/3--3/5-----------------------------------------------
    G ---------5----------4/5-4/5-----------------------------------------
    D ----------5---------------------------------------------------------
    A --------------------------------------------------------------------
    E --------------------------------------------------------------------
    
    E -------------5-8/10-7----5-3-3/5------------------------------------
    B -----5-6-8------------------------5-8--8-10-------------------------
    G -5-7-----------------------------------------5/7---5----------------
    
  • ESO ES TODO SUERTE... ESPERO LES GUSTE,O K,SALUDOS AL TIO
    JOSUE, AGRESSOR AL MANZA... HAY SE VEN.
    
    
    VERSO
    G:|--------------------------------------------------------------
    D:|- ------------------------------------------------------------
    A:|-3-3-5-7-7-5-5---------2-3---------------------------------------------
    E:|----------------3-5-7--------------------------------------------
    
    
    ANTES DEL CORO EN LA PARTE DE PARA QUE NADIE*SE METIERA
    EN TU VIDA ASI COMO ASI...
    
    G:|--------------------------------------------------------------
    D:|- ------------------------------------------------------------
    A:|-----------5-5--------------------------------------------------
    E:|-*-1-1-1-1------3-3-3-------------------------------------------------
    
    
    
    G:|--------------------------------------------------------------
    D:|- ------------------------------------------------------------
    A:|-3-3-5-7-7-5-5---------2-3---------------------------------------------
    E:|----------------3-5-7
  • +
    ¡Colabora con nosotros!
    Envíanos tu versión de esta canción

Letra de Dame otra oportunidad (tracción acústica)
Dicen que el mejor consejo
es el que se da uno mismo
que nada es tan importante
com un hombre decidido
y yo no quiero esconder mi amor yo no quiero olvidarte
Se bien que los errores
siempre terminan por pagarse
es que acaso fue mi error
el demasiado protegerte
para que nadie te hiriera
para que nadie se metiera
en tu vida asi como asi
por eso...
Dame otra oportunidad
dame otra oportunidad
dame otra oportunidad
para saber al menos si amarte estuvo mal
EN EL SOLO TOCAS ESTOS ACORDES ( C Em Dm G ) X7
Si es que vos me necesitas como yo te necesito amor
dame otra oportunidaaaaad por eso
Dame otra oportunidad por eso
dame otra oportunidad por eso
dame otra oportunidaaaaaad
dame ota oportunidad
TERMINA CON ESTOS ACORDES ( C Em Dm G )
Ojala les haya gustado cualquier correccion duda o quieran intercambiar tabs
de blues especialmente mi correo es roger_blues@hotmail.com
Adios y q viva el rock and rollll carajo




[Dame otra oportunidad (tracción acústica) chords][Dame otra oportunidad (tracción acústica) cifra]
© LaCuerda.net · aviso legal · privacidad · es · en · pt · contacto