Acordes de Guitarra » E »Enanitos Verdes » Cuanto poder (Tab)

Cuanto poder
Enanitos Verdes

Letras, Acordes y Tabs para Guitarra, Bajo y Ukulele

  •           E             F#
    Cuanto poder me da su amor
    D                 E
    la quiero a mi lado 
    D                     E             A
    ella rompió los candados de mi amor
    
    
    la conocí en abril era el destino
    C#m
    y dije para mi que bien que vino
    Bm
    yo no podía creer que me pasara
    E
    que una chica así se me acercara
    
    A
    se convirtió en actriz protagonista
    C#m
    de cada pinche film que yo rodaba
    
  • LA            DO          
    Cuanto poder me da su amor
    SI#m          MIm
    la quiero a mi lado 
    LA       DO     SI#m        MIm
    ella rompió los candados de mi amor
    
    
    la conocí en abril era el destino
    LA          DO
    y dije para mi que bien que vino
    SI#m
    yo no podía creer que me pasara
    MI
    que una chica así se me acercara
    
    LA
    se convirtió en actriz protagonista
    DO
    de cada pinche film que yo rodaba
    
  • este va despues del primer coro 
    --------------------------------------------------------------
    -----------2-2---------------------2-2------------------------
    --------2------2----------------2------2----------------------
    --2--4--------------------2--4--------------------------------
    --------------------------------------------------------------
    --------------------------------------------------------------
    
    
    --------------------------------------------------------------
    -----------2-2---------------------2-2------------------------
    --------2------2----------------2------2----------------------
    --2--4--------------------2--4--------------------------------
    --------------------------------------------------------------
    --------------------------------------------------------------
    
    
    -----------12-12-9--------9-9h12-9----------9-7-7/9------------------
    -------10--------------10----------------10---------12-10-12-10h12---
    --9-11---------------9--------------9-11--------
  •          D             E
    Cuanto poder, me da su amor,
    C                 D
    la quiero a mi lado,
    C                     D             G
    ella rompió los candados, de mi amor.
    
     G
    La conocí en abril, era el destino,
    Bm
    y dije para mí, qué bien que vino,
    Am
    yo no podía creer, que me pasara,
    D
    que una chica así, se me acercara.
    
    Se convirtió en actriz, protagonista,
    de cada pinche film, que yo rodaba,
    ella escribió el guión, de esta novela,
    me transformó en galán, yo pa’ ni vela.
    
  • Canción bien Chida, para las mujeres ke nos traen locos!!!!
    INICIO:
    
    Cuanto podeeeer.. Me da su amor
    
    G---------------------------------------------
    D-2222222222222222222222222-444444444444444444
    A---------------------------------------------
    E---------------------------------------------
    
    La quiero a mi lado,           ella rompió los candados de mi amor:
    
    G-----------------------------------------------------------------
    D-----------------------------------------------------------------
    A-55555555555555-7777777777777-55555555555555-77777777777777777-12
    E-----------------------------------------------------------------
    
    Verso: (la conocí en abril…)
    
    G--------------------------------------------------
    D-----2-------2----2-----2-----0-----0-2--2--2-2---
    A----3-------3-4--4--4--4--2--2--2--2-------2-----2
    E-5-5—-5--5-5-------4-----4-----2-----2----3-----3-
    
    Verso: (Se convirtió la actriz...)
    
    G--------------------------------------------------
    D-----2-------2----2-----2-----0-----0
  • Hola, despues de tanto tiempo he regresado a colaborar con ATAME
    y bueno regreso con dos rolas, una es esta, cuanto poder, que a
    mi en lo personal me late por su ritmo y por su vieo que esta 
    bastante bueno, pero bueno, vamos a ver la tablatura para los ba-
    takos, y bueno, espero que sea lo que buscan y recuerden hay que 
    ponerle feeling y bueno aqui esta
    
    
    T - Tarola
    X - Hi Hats
    TC - Tom Chico
    TM - Tom Mediamo
    TP - tom de piso
    B - Bombo
    C - Crash
    R - Ride  
    
    
    Bueno vamos por partes, inician cantando y nosotros tenemos que entrar
    con el Crash y el bombo. y despues con el ritmo con los hats a cuartos
    y esto es asi
    
    	C   x         x  x  x  x    x  x  x  x    x  x  x  x    x  x  C  x
    
    	    t            t     t       t     t       t     t       t     t
    
            B             B     B       B    BB       B     B       B    BB
     
    	 
    Trata de que los Hats, no estan totalmente cerrados sino que levanta un
    poquito el pedal para que se oiga más chido, claro es una su
  • +
    ¡Colabora con nosotros!
    Envíanos tu versión de esta canción

Letra de Cuanto poder
Cuanto poder me da su amor
la quiero a mi lado
ella rompió los candados de mi amor
la conocí en abril era el destino
y dije para mi que bien que vino
yo no podía creer que me pasara
que una chica así se me acercara
se convirtió en actriz protagonista
de cada pinche film que yo rodaba
ella escribió el guión de esta novela
me transformó en galán yo pa’ ni vela
y desde que ella está no importa nada más
Cuanto poder me da su amor
la quiero a mi lado
ella rompió los candados de mi amor

Sus ojos vi brillar entre la gente
y su sonrisa fue tan contundente
algo pasaba aquí no había duda
y al sumar contra el te sin armadura
y desde que ella está no importa nada más
Cuanto poder...
Quiero navegar mi barco pirata aquí
ir a tomar sol con ella y su bronceador
el lago Michigan fue el testigo
que nuestro amor nació sin compromisos
Cuanto poder...




[Cuanto poder chords][Cuanto poder cifra]
© LaCuerda.net · aviso legal · privacidad · es · en · pt · contacto