Acordes de Guitarra » E »Enanitos Verdes » Mariposas (Tab)

Mariposas
Enanitos Verdes

Letras, Acordes y Tabs para Guitarra, Bajo y Ukulele

  • INTRO: Bm G D A x2
    
    Bm          G             D
    Yo daria lo mejor de mi vida
    A
    por estar con vos
    Bm          G             D
    y podría reparar mi alma herida
    A
    a la luz del sol
    Bm          G             D
    no es tan cierto que yo vivo como quiero
    F#m                 Bm
    mas bien hago lo que puedo
    G              A          D
    viviendo a la sombra de tu amor
    
    Bm          G             D
    Las miradas que cruzamos son palabras
    A
    
  •    Bm          G            D           A
    e------------------------------------------
    B------------------------------------------
    G---/44-4-4-6-7-----4-6-7------------------
    D--------------7~--7------5-4-------4-5--7-
    A-----------------------------7-5-7--------
    E------------------------------------------
       Bm          G           D          A
    e------------------------------------------
    B------------------------------------------
    G---/44-4-4-6-7-----4-6-7------------------
    D--------------7~--7-------5----4-5-4------
    A--------------------------------------7---
    E------------------------------------------
    
    Bm          G             D
    Yo daria lo mejor de mi vida
          A
    por estar con vos
          Bm          G             D
    
  •    Bm          G            D           A
    e------------------------------------------
    B------------------------------------------
    G---/44-4-4-6-7-----4-6-7------------------
    D--------------7~--7------5-4-2-0-2-4-5-2--
    A------------------------------------------
    E------------------------------------------
       Bm          G           D          A
    e------------------------------------------
    B------------------------------------------
    G---/44-4-4-6-7-----4-6-7------------------
    D--------------7~--7-------5-4-5-4-2-------
    A------------------------------------------
    E------------------------------------------
    
    Bm          G             D
    Yo daria lo mejor de mi vida
    A
    por estar con vos
    Bm          G             D
    
  • En la versión de video hay dos bajos el de acá es el que sobresale
    el 2do bajo son algunos arreglos que se hacen ENCIMA del primer bajo
    SOLO EN ALGUNAS PARTES y en esas partes el primer bajo sigue sonando:
    
    (INTRO)
    
    G|----------------------------|
    D|----------------------------|
    A|--2-22--------5-55----------|
    E|--------3-33--------5-55----| x4
    
    No es tan cierto...
    
    G|--------------------------------------------------------|
    D|--------------------------------------------------------|
    A|--2-22--------5-55--------2-22--------------5-55--5-55--|
    E|--------3-33--------2-22--------3-33--5-55--------------|
    
    Las miradas
    
    G|----------------------------|
    D|----------------------------|
    A|--2-22--------5-55----------|
    E|--------3-33--------5-55----| x2
    
    Sin embargo digo siendo un distraído...
    
    G|--------------------------------------------------------|
    D|--------------------------------------------------------|
    A|--2-22--------5-55--------2-22--------------5-55--5-55--|
    E|--------3-33-------
  • Intro
    G|------------------------------|
    D|------------------------------|
    A|--22-245-----24-55-5----------|
    E|---------33-3-------55-5------|  x2
    
    Fig. 1
    Yo daria lo mejor de mi vida por estar con vos
    G|------------------------------|
    D|------------------------------|
    A|--22-245-----24-55-5----------|
    E|---------33-3-------55-5------|  x2
    
    No es tan cierto q yo vivo como kiero, mas bien hago lo que puedo
    G|-----------------------------------------|
    D|--------------------44-420---------------|
    A|--22-245-----24-55-5-------22-245--------|
    E|---------33-3----------------------------|
    
    Viviendo a la sombra de tu amor
    G|----------------------------|
    D|--------------000000--------|
    A|------42-00-0---------------|
    E|--33-3----------------------|
    
    Fig.1 Otra vez
    
    Coro.
    Si te vas no tengo nada
    G|------------------------------|
    D|------------------------------|
    A|--22-245-----24-55-5----------|
    E|---------33-3-------55-5------|  x2
    
    O quizás no habré crecido, dejando mariposas escapar
    G|------
  • +
    ¡Colabora con nosotros!
    Envíanos tu versión de esta canción
  • Tutorial
    HD
    Como tocar MARIPOSAS en guitarra - Enanitos Verdes [Tutorial Somos Posers]
    9:11
  • Tutorial
    HD
    Explicado - Como tocar "Mariposa" de Enanitos Verdes en el bajo tutorial#69
    8:56

Letra de Mariposas
Yo daria lo mejor de mi vida
por estar con vos
y podría reparar mi alma herida
a la luz del sol
no es tan cierto que yo vivo como quiero
mas bien hago lo que puedo
viviendo a la sombra de tu amor
Las miradas que cruzamos son palabras
con el corazon
no hay secretos tengo el cielo por mirarte
ningun dolor
sin embargo sigo siendo un distraido
como cuando era un niño
dejando mariposas escapar
Si te vas no tengo nada
si te quedas puedo hasta el mundo cambiar
o quizas no habré crecido
dejando mariposas escapar
Yo daria lo mejor de mi vida
por estar con vos
y podria reparar tu alma herida
a la luz del sol
sin embargo sigo siendo un distraido
como cuando era un niño
dejando mariposas escapar
Si te vas no tengo nada
si te quedas puedo hasta el mundo cambiar
o quizas no habré crecido
dejando mariposas escapar
Si te vas no tengo nada.....
Esta cancion va dedicada a todos los rockeros de corazon,
y a la banda (Fuzion 13)= El Tio, Angel, Magaly, Pollo,
La Louc, & un servidor!!!
Cualquier duda: envienme (un mail) ;D oink! oink! wuiiii!!...




[Mariposas chords][Mariposas cifra]
© LaCuerda.net · aviso legal · privacidad · es · en · pt · contacto