Tablatura para Bajo de Enanitos Verdes: Cuanto poder
Conexión · Inscripción
Letras y Acordes
Pantalla Completa
Imprimir
Versión Texto
Añadir Favorito
Otras Versiones

Mostrar Diagramas
Desfile Automático
Formato del Texto


Cuanto poder(BAJ)

Enanitos Verdes

calidad:
enan0856
AUTOR: Marciano Cantero, Irina Sorokina
ALBUM: Amores Lejanos (2002)
Enviado por Ezequiel
Canción bien Chida, para las mujeres ke nos traen locos!!!!
INICIO:

Cuanto podeeeer.. Me da su amor

G---------------------------------------------
D-2222222222222222222222222-444444444444444444
A---------------------------------------------
E---------------------------------------------

La quiero a mi lado,           ella rompió los candados de mi amor:

G-----------------------------------------------------------------
D-----------------------------------------------------------------
A-55555555555555-7777777777777-55555555555555-77777777777777777-12
E-----------------------------------------------------------------

Verso: (la conocí en abril…)

G--------------------------------------------------
D-----2-------2----2-----2-----0-----0-2--2--2-2---
A----3-------3-4--4--4--4--2--2--2--2-------2-----2
E-5-5—-5--5-5-------4-----4-----2-----2----3-----3-

Verso: (Se convirtió la actriz...)

G--------------------------------------------------
D-----2-------2----2-----2-----0-----0-2--2--2-2---
A----3-------3-4--4--4--4--2--2--2--2-------2-----2
E-5-5—-5--5-5-------4-----4-----2-----2----3-----3-

Precoro: (Y desde que ella está...)

G----------------------------------
D-----0------2-----2-----0-----0---
A-2--2--4--4---3--3--2--2--2--2-2s7
E------2------4-----3-----2--------

CORO

Cuanto podeeeer.. Me da su amor

G------------------------------------------------------------
D------------------------------------------------------------
A-7777777777777777777777777-999999999999999999-99-88-77-66-55
E------------------------------------------------------------

La quiero a mi lado,           ella rompió los candados de mi amor:

G-----------------------------------------------------------------
D-----------------------------------------------------------------
A-55555555555555-7777777777777-55555555555555-77777777777777777-12
E-----------------------------------------------------------------

Primer Solo:

G--------------------------------------------------
D-----2-------2----2-----2-----0-----0-2--2--2-2---
A----3-------3-4--4--4--4--2--2--2--2-------2-----2
E-5-5—-5--5-5-------4-----4-----2-----2----3-----3-

Verso: (Sus ojos ví brillar...)

G--------------------------------------------------
D-----2-------2----2-----2-----0-----0-2--2--2-2---
A----3-------3-4--4--4--4--2--2--2--2-------2-----2
E-5-5—-5--5-5-------4-----4-----2-----2----3-----3-

Precoro: (Y desde que ella está...)

G----------------------------------
D-----0------2-----2-----0-----0---
A-2--2--4--4---3--3--2--2--2--2-2s7
E------2------4-----3-----2--------

CORO

Cuanto podeeeer.. Me da su amor

G------------------------------------------------------------
D------------------------------------------------------------
A-7777777777777777777777777-999999999999999999-99-88-77-66-55
E------------------------------------------------------------

La quiero a mi lado,           ella rompió los candados de mi amor:

G-----------------------------------------------------------------
D-----------------------------------------------------------------
A-55555555555555-7777777777777-55555555555555-77777777777777777-12
E-----------------------------------------------------------------

(segundo Solo)
Descansa bajo, queda bateria y guitarra nadamás...

Ritmo Lento:

Quiero navegar, mi barco pirata aquí:
G-----
D-----
A-----
E--5--

Ir a tomar sol, con ella y su bronceador
G-----
D-----
A---4-
E-----

Vuelve a Ritmo normal
(El lago michigan fue el testigo…)
G--------------------------
D------0-----0-2--2--2-2---
A--2--2--2--2-------2-----2
E-------2-----2----3-----3-

Verso: (la conocí en abril…)

G--------------------------------------------------
D-----2-------2----2-----2-----0-----0-2--2--2-2---
A----3-------3-4--4--4--4--2--2--2--2-------2-----2
E-5-5—-5--5-5-------4-----4-----2-----2----3-----3-

Precoro: (Y desde que ella está...)

G----------------------------------
D-----0------2-----2-----0-----0---
A-2--2--4--4---3--3--2--2--2--2-2s7
E------2------4-----3-----2--------

CORO

Cuanto podeeeer.. Me da su amor

G------------------------------------------------------------
D------------------------------------------------------------
A-7777777777777777777777777-999999999999999999-99-88-77-66-55
E------------------------------------------------------------

La quiero a mi lado,   estoy liberado.......

G-----------------------------------------------------------------
D-----------------------------------------------------------------
A-55555555555555-7777777777777-55555555555555-77777777777777777-12
E-----------------------------------------------------------------

Cierre (x5)

G--------------------------------------------------
D-----2-------2----2-----2-----0-----0-2--2--2-2---
A----3-------3-4--4--4--4--2--2--2--2-------2-----2
E-5-5—-5--5-5-------4-----4-----2-----2----3-----3-

Esta rola va para la maniwis y tata por ser tan lindas conmigo!!!!,
las kiero un kilo!!! jejejejejeje
Este fichero es trabajo propio de su transcriptor y representa su interpretación personal de la canción. El material contenido en esta página es
para exclusivo uso privado, por lo que se prohibe su reproducción o retransmisión, así como su uso para fines comerciales.

© LaCuerda.net · Aviso Legal · Privacidad