Tablatura de En Espiritu y en Verdad: Gloriosa Cruz
Isaac Watts(arreglo por Chris Tomlin)
Amor Asombroso [2009]
1ra parte

e----------------------------------------------------------------
B--14-14-14-14-14-14--17-16-12-12s14-14-14-14-14-14--17-16-12-12-
G--13-13-13-13-13-13--16-15-11-11s13-13-13-13-13-13--16-15-11-11-
D--11-11-11-11-11-11--14-13- 9- 9s11-11-11-11-11-11--14-13- 9- 9-

e----------------------------------------------------------------
B--11-11-11-11-11-11-11-11s13-13-13-13-13-13-13-13---------------
G----------------------------------------------------------------
D----------------------------------------------------------------
se repite dos veces

2da parte

e----------------------------------------------14--16~------14-16~
B--------9--------9-----------------------17------------17--------
G--9--11----9--11-----9--11--8-9--11--8s16---16---16--16---16-16--
D-9--9--9--9--9--9--9--9---9--9--9--9-----------------------------

e--------------14-----------14--------
B-------17--------16~-17-------16~16s1
G----16----16---16--16---16--16-------

eso es todo, espero les guste, y que sea de bendicion para todo ustedes
que Dios los Bendiga, si tienen alguna duda mi correo es
pinky.1605@hotmail.com

s=Slide
~=Bending
Este fichero es trabajo propio de su transcriptor y representa su interpretación personal de la canción. El material contenido en esta página es
para exclusivo uso privado, por lo que se prohibe su reproducción o retransmisión, así como su uso para fines comerciales.


Otras canciones del Artista

© LaCuerda.net · Aviso Legal · Privacidad