Acordes de Guitarra » E »En Espiritu y en Verdad » En tu luz (Tab)
  • Letra y Acordes
    E
    Tan consumidos por tu amor
                                   C#m             A
    Que hemos perdido el sentido de nuestro alrededor
    E
    Ya nada nos puede deslumbrar
                         C#m             A
    Nada en este mundo se te puede comparar
    B/D#      C#m   B         E
    Nadie como Tú, nadie como Tú
    B/D#      C#m   B        A      E
    Nadie como Tú, nadie como Tú Jesús
    
              CORO:
    E
    Eres nuestra herencia,
    B
    Más que suficiente,
    A           C#m      B
    Nuestro Redentor y Rey, Jesús
    
  • Letra y Acordes
    INTRO: E B A C#m-B
    
    
    E
    Tan consumidos por tu amor
                                                C#m   C#m-D#m-E-A
    Que hemos perdido el sentido de nuestro alrededor
    E
    Ya nada nos puede deslumbrar
                                     C#m    C#m-D#m-E-A
    Nada en este mundo se te puede comparar
    B      C#m   B         E
    Nadie como Tú, nadie como Tú
    B      C#m   B        A      E
    Nadie como Tú, nadie como Tú Jesús
    
    CORO:
    E
    Eres nuestra herencia,
    B
    
  • Letra y Acordes
    E                       B
    Tan consumidos por tu amor
                                   C#m                A
    Que hemos perdido el sentido de nuestro alrededor
    E                         B
    Ya nada nos puede deslumbrar
                                            A
    Nada en este mundo se te puede comparar
    
    B         C#m   B          A
    Nadie como Tú, nadie como Tú
    B         C#m   B          A       E
    Nadie como Tú, nadie como Tú Jesús
    
    -- CORO --
    E
    Eres nuestra herencia,
    B
    Más que suficiente,
    A             C#m    B      E
    
  • Tablatura
    INTRO (E,B,A,C#m,B)
    
    E|---------------------------------------
    A|---------------------------------------
    D|---------------------------------------
    G|-9-9-9---------------------------------
    B|-------12-12-12-10-10-10-9-9-9-9/10/9--
    e|---------------------------------------
    
    E|---------------------------------------
    A|---------------------------------------
    D|---------------------------------------
    G|-9-9-9---------------------------------
    B|-------12-12-12-10-10-10-9-9-9-9/10/9--
    e|---------------------------------------
    
    E|---------------------------------------
    A|---------------------------------------
    D|---------------------------------------
    G|-9-9-9---------------------------------
    
  • Tablatura
    E--------------------------------------------------
    A-------------------------------------------------- esto se
    D-------------------------------------------------- repite
    G-------------------------------------------------- 3 veces
    B--5--5--5-----------------------------------------
    e-----------7--7--7--5--5--5--4--4--4--4(p5)--4--0-
    
    Segunda parte
    E-----------------------------------
    A-----------------------------------
    D-----------------------------------
    G-----------------------------------
    B--------------------------------4--
    e--0--2--2--2--0--0--0--4--4--4-----
    
    Todo esto se repite 2 veces en el intro y antes de terminar solo
    se toca la primer parte 3 veces y terminas con los siguientes
    acordes en octavas:
    
    F# F# E E G# G# D# D# D# E
    
  • Tablatura
    Intro: //E - B - A - C#m - B//
    
    
    E|--------------------------------------------------------------
    B|-------12-12-12-10-10-10-9-9-9-9-9-9--------------------9-9-9-
    G|-9-9-9-------------------------------x3--11-11-11-9-9-9-------
    D|--------------------------------------------------------------
    A|--------------------------------------------------------------
    E|--------------------------------------------------------------
    
    
    
    E|--------------
    B|--------------
    G|-8-8-8-8-8~---
    D|--------------
    A|--------------
    E|--------------
    
    
    
  • Tab p/Bajo
    Saludos es mi 2da colaboracion y pues esta vez saque la cancion
    escuchandola en un cel sony xD
    
    pues se oye bien y tal vez no este al 100% atinada pero puedo
    decir con certeza que es muy parecida de un 100% esta un 95%
    
    jojo pues ah les va y que la disfruten tocando pues es una rola
    muy chida jojojo xD Dios los Bendiga!
    
    En tu Luz
    Bajo Estándar: E, A, D, G
    
    /:Slide (Deslizar o Deslice)
    
    Intro: x2 (la primera vez es con las cuerdas apagadas)
    E|---------------------------
    A|-7(8)-2(8)-0(8)-4(4)-2(4)/7
    D|---------------------------
    G|---------------------------
    
    Verso 1: (comienza hasta que dice “de nuestro alrededor……”)
    E|--------------------------------------
    A|-0/4-4-4-4-4-4-4-4-2-2-2-2-2-2-2-2-2/7
    D|--------------------------------------
    G|--------------------------------------
    
    Verso 2: (se termina hasta que dice “Jesús”)
    E|------------------------------------
    A|-0/4-4-4-4-4-4-4-4-2-2-2-2-2-2-2-2-2
    D|------------------------------------
    G|------------------------------------
    
  • +
    ¡Colabora con nosotros!
    Envíanos tu versión de esta canción
  • Tutorial
    Tutorial Guitarra Acustica En Tu Luz Espiritu y Verdad
    7:10

Letra de En tu luz
Tan consumidos por tu amor
Que hemos perdido el sentido de nuestro alrededor
Ya nada nos puede deslumbrar
Nada en este mundo se te puede comparar
Nadie como Tú, nadie como Tú
Nadie como Tú, nadie como Tú Jesús
Eres nuestra herencia,
Más que suficiente,
Nuestro Redentor y Rey, Jesús
Muestra tu camino
Y andaremos en tu Luz,
A la Luz de tu Verdad
En Tu luz vemos la luz
En Tu luz vemos la luz
En Tu luz vemos la luz
Aqui les dejo mi cuarta contribucion con la cuerda,
espero que les sirva, Saludos a Abraham, Kike y Miguelito.
Dudas Aclaraciones Y Comentarios mike_locosamista777@hotmail.com
P.D. No respondo mails los fines de semana
(viernes sabados y domingos) por que me la paso en la iglesia.
Bendiciones



© LaCuerda.net · aviso legal · privacidad · contacto