Acordes de Guitarra » E »En Espiritu y en Verdad » En tu presencia (Tab)

En tu presencia
En Espiritu y en Verdad

Letras, Acordes y Tabs para Guitarra, Bajo y Ukulele

  • D
    Me encuentro en ti, alegre estoy
    Em7                  Em7/F#   G                D
    Todo temor, Tu lo limpiaras Señor, en tu presencia
    D
    Mis ganancias no brillan  mas
    Em7              Em7/F#   G                D
    Cada corona a ti la rendiré en tu presencia
    
    PRECORO:
    
    Bm           A                  G
     Tiembla el cielo al ver tu grandeza
    Bm          A                   G   A
    Reinos y reyes se asombran de ti
    
    CORO:
              D            A/C#
    En tu presencia nos consumes
              Bm        A                     G
    
  • e|-------14-------
    B|-17-15----15----
    G|-------------14-(x2)
    
    e|-------14-------
    B|-17-15----17----
    G|-------------12-(x2)
    
    e|-------------------------------------17-15--------------
    B|-12--12-14--14-15--15-17--17---------------19-17-15-----
    G|--------------------------------------------------------
    D|-----------------------------16---------------------16--
    
    Verso 1:
    D
    Me encuentro aquí alegre estoy
    Em                            G
    Todo temor Tú lo limpiarás Señor
                 D
    En tu presencia
    
  • E-----------------------------------------------------------
    A-----------------------------------------------------------
    D-----------------------------------------------------------
    G-------------------14-------------------14-----------------
    B---17--15------15-------17--15------15---------------------
    e-----------14-------------------14-------------------------
    
    E-----------------------------------------------------------
    A-----------------------------------------------------------
    D-----------------------------------------------------------
    G-------------------12-------------------12-----------------
    B---17--15------15-------17--15------15---------------------
    e-----------14-------------------14-------------------------
    
    E-----------------------------------------------------------
    A-----------------------------------------------------------
    D-----------------------------------------------------------
    G-------------------14---14---------------------------------
    B---12--14--15--17-------------------15--14-----------------
    e----------------------------15--14-------------------------
    
  • e------14------------14------
    B-17-15--15-----17-15--15----
    G-----------14------------14-
    
    e------14--------------14------
    B-17-15--15-------17-15--15----
    G-----------12--------------12-
    
    
    e--------------------------------15-14-------
    B-12-12/14-14/15-15/17-17--------------15----
    G-------------------------14--14----------14-
    D--------------------------------------------
    
    
    Verso 1:
    D9
    Me encuentro aquí alegre estoy
    Em7                 D9/F#    G
    Todo temor Tú lo limpiarás Señor
    
  • EL BAJO HACE ESTE ARREGLO,SE ESCUCHA BIEN SI LO TOCAS
    ANTES Y DURANTE ELA LETRA DEL PUENTE ::
    
    
    G|----------------------------------------------------------------------|
    D|----------------------------------------------------------------------|
    A|-14-14-14-14-14-14-16-17-12-12-12-12-12-12-16-17-10-10-10-10-10-10-16-|
    E|----------------------------------------------------------------------|
    
    G|----------------------------------------------------------------------|
    D|----------------------------------------------------------------------|
    A|-17-9-9-9-9-9-9-10-12-------------------------------------------------|
    E|----------------------------------------------------------------------|
    
            Bm         A         G      D/F#
    //Espléndido, Hermoso, Glorioso, Majestad sin Igual
    
    
    SI PUEDEN ESCUCHEN LA VERSION EN INGLES DONDE SE ESCUCHA
    MUY BIEN ESTE ARREGLO DEL BAJO
    CHEQUENLO EN http://www.youtube.com/watch?v=PFZyT2fEK3I
  • +
    ¡Colabora con nosotros!
    Envíanos tu versión de esta canción

Letra de En tu presencia
Me encuentro en ti, alegre estoy
Todo temor, Tu lo limpiaras Señor, en tu presencia
Mis ganancias no brillan mas
Cada corona a ti la rendiré en tu presencia
PRECORO:
Tiembla el cielo al ver tu grandeza
Reinos y reyes se asombran de ti
En tu presencia nos consumes
En tu presencia el cielo y la tierra uno son
En tu presencia renuevas todo
En tu presencia todo se postra ante ti
Esplendido, hermoso, glorioso, majestad sin igual.
Esplendido, hermoso, glorioso, majestad sin igual.(para ir al coro)
Dios lez bendiga...Saludos a Lalito, q te recuperes pronto del golpe
en tu nuca y Feliz cumple!!!echale ganas carnal




[En tu presencia chords][En tu presencia cifra]
© LaCuerda.net · aviso legal · privacidad · es · en · pt · contacto