Tablatura para Guitarra de En Espiritu y en Verdad: En tu presencia
Conexión · Inscripción
Letras y Acordes
Pantalla Completa
Imprimir
Versión Texto
Añadir Favorito
Otras Versiones

Mostrar Diagramas
Desfile Automático
Manipular Acordes
Formato del Texto


En Espiritu y en Verdad
En tu presencia(TAB)
calidad:
eeyx0322
AUTOR: Kelly Spiker
ALBUM: Amor Asombroso (2009)
Enviado por IBARRA
INTRO

E-----------------------------------------------------------
A-----------------------------------------------------------
D-----------------------------------------------------------
G-------------------14-------------------14-----------------
B---17--15------15-------17--15------15---------------------
e-----------14-------------------14-------------------------

E-----------------------------------------------------------
A-----------------------------------------------------------
D-----------------------------------------------------------
G-------------------12-------------------12-----------------
B---17--15------15-------17--15------15---------------------
e-----------14-------------------14-------------------------

E-----------------------------------------------------------
A-----------------------------------------------------------
D-----------------------------------------------------------
G-------------------14---14---------------------------------
B---12--14--15--17-------------------15--14-----------------
e----------------------------15--14-------------------------


D Me encuentro aquí alegre estoy
Em G Todo temor Tú lo limpiarás Señor
D En tu presencia
D Mis ganancias no brillan más
Em G Cada corona a Ti la rendiré
D En tu presencia
Bm A D Tiembla el cielo al ver tu grandeza
Bm A D Reinos y reyes se asombran de Ti
D A/C# En Tu presencia, nos consumes
Bm A D/F# G En Tu presencia el cielo y la tierra uno son
D A/C# En Tu presencia renuevas todo
Bm A D/F# G En Tu presencia todo se postra ante Ti. SOLO: Puente:
Bm A G D/F# //Espléndido, Hermoso, Glorioso, Majestad sin Igual ESPERO QUE LES SIRVA ES MI PRIMERA TRANSCRIPCION QUE DIOS LOS BENDIGA UN SALUDO PA TODOS LOS CHAVOS DEL GRUPO DE JOVENES "VOX DEI" DE ACTOPAN HGO
Este fichero es trabajo propio de su transcriptor y representa su interpretación personal de la canción. El material contenido en esta página es
para exclusivo uso privado, por lo que se prohibe su reproducción o retransmisión, así como su uso para fines comerciales.
© LaCuerda.net · Aviso Legal · Privacidad