Acordes de Guitarra » D »Divididos » Vengo del placard de otro (Tab)

Vengo del placard de otro
Divididos

Letras, Acordes y Tabs para Guitarra, Bajo y Ukulele

  • Em9 - Em9/D - Em/C# - Cmaj (x 4 veces)
    
       Em9       Em9/D        Em/C#   Cmaj
    Llueve y no  me  beses porque - e
    me destiño de tu boca
    porque te apunto con la trompa
    le erro y no me la vanco.
    
    Eb dim·                       Em
    Vengo a vela con el mal del cagón
    Eb dim·                       Em
    me tropiezo con mis piernas
         Cmaj              Bb
    gambeteando gente vengo
        F           Em
    del placard de otro.
    
    Sigue lloviendo en esta esquina
    pero esas sombras no se mojan
    por este amor de calle abajo
    
  •    MIm7    Mim/b6  MIm   DO#·  DO
    Llueve y no  me  beses porque - e
    me destiño de tu boca
    porque te apunto con la trompa
    le erro y no me la vanco.
    
    MIb·   FA#·      La·        MIm   MIm7
    Vengo a vela con el mal del cagón
    MIb·     FA#·  La·     MIm
       me tropiezo con mis piernas
         DO                SIb·
    gambeteando gente vengo
                    MIm   MIm7 - Mim/b6 - MIm
    del placard de otro.
    
    Sigue lloviendo en esta esquina
    pero esas sombras no se mojan
    por este amor de calle abajo
    volver en bondi es la que queda.
    
    
  • intro  Em7 Em  Em6m
    
    
    Em7        Em6     Em6m   Cmaj7  Cadd9
       Llueve y no me beses porque
    Em7        Em6     Em6m   Cmaj7  Cadd9
       me destiño de tu boca
    Em7        Em6     Em6m   Cmaj7  Cadd9
       Porque te apunto con la trompa
     Em7        Em6     Em6m   Cmaj7  Cadd9
       Le erró y no me la banco.
    
    Edim                        Em
    Vengo a vela con el mal del cagón
    Edim                        Em
    Me tropiezo con mis piernas
    C                     C/B/Bb
    Gambeteando gente vengo
    F                     Em
    del placard de otro.
    
  • e|-----------------------------------------------
    B|--------3---1--0--------------3---1--0---------
    G|----0----0-0-0--0---------0----0-0-0--0--------
    D|---2-2----2---2--0-------2-2----2---2--0-------
    A|-----------------------------------------------
    E|-0-----------------0p2-0-----------------0p2-0-
    
    e|-----------------------------------------------
    B|--------3---1--0--------------3---1--0---------
    G|----0----0-0-0--0---------0----0-0-0--0--------
    D|---2-2----2---2--0-------2-2----2---2----------
    A|---------------------0-------------------------
    E|-0-----------------0p2-0-----------------2-0---
    
    e|-----------------------------------------------
    B|--------3---1--0--------------3---1--0---------
    G|----0----0-0-0--0---------0----0-0-0--0--------
    D|---2-2----2---2--0-------2-2----2---2--0-------
    A|-----------------------------------------------
    E|-0-----------------0p2-0-----------------0p2-0-
    
  • Intro:
    
    e|----------------------------------------------------------------------------------
    B|--------3----1-----------------3----1-----------------3----1-----------3---1------
    G|---------0----0-----------------0----0-----------------0----0-----------0---0-----
    D|----2-----2----2-----------2-----2----2-----------2-----2----2------2----2---2----
    A|---2-2--------------------2-2--------------------2-2---------------2-2------------
    E|-0-----------------3---0------------------3---0------------------0-------------2-3
    
    Tema: (1° parte)
    
    e|-----------------------------0------------0-0-	--
    B|---------3--2--1--0-----------1-1----------1--	  |
    G|----------0--0--0--0------0----0------0-------	  |-- 4 veces
    D|-----2-----2--2--2--2----2-2---------2-2------	  |
    A|----2-2-----------------4-----------3---------	  |
    E|--0-------------------------------------------	--
    
    Llueve y no me beses por que	 (1° vez)
    me destiño de tu boca		 (2° vez)
    por que te apunto con la trompa	 (3° ve
  • +
    ¡Colabora con nosotros!
    Envíanos tu versión de esta canción

Letra de Vengo del placard de otro
Llueve y no me beses porque - e
me destiño de tu boca
porque te apunto con la trompa
le erro y no me la vanco.
Vengo a vela con el mal del cagón
me tropiezo con mis piernas
gambeteando gente vengo
del placard de otro.
Sigue lloviendo en esta esquina
pero esas sombras no se mojan
por este amor de calle abajo
volver en bondi es la que queda.
Vengo a vela con el mal del cagón...
- el Em/C# se puede cifrar como un semidisminuido
- el Eb dim se puede tocar desde cualquier nota Eb - F# - A - C
- la sequencia de acordes principal se puede pensar como un
mi menor que va cambiando de bajo (E - D - C# - C)




[Vengo del placard de otro chords][Vengo del placard de otro cifra]
© LaCuerda.net · aviso legal · privacidad · es · en · pt · contacto