Tablatura para Bajo de Divididos: Qué Ves
Conexión · Inscripción
Letras y Acordes
Pantalla Completa
Imprimir
Versión Texto
Añadir Favorito
Otras Versiones

Mostrar Diagramas
Desfile Automático
Formato del Texto


Qué Ves(BAJ)

Divididos

calidad:
divi0356
AUTOR: Divididos  corregir
ALBUM: desconocido
Enviado por Maximiliano
Bueno, aqui dejo este tema que esta muy bueno para tocarlo en el bajo

El bajo entra a los 16 segundos empezado el tema

G-|-------------|
D-|-------------|
A-|-------------|
E-|----13/5-----|



    Am              G                 D
G-|-----------------------------------------------------|
D-|-------------7-------------------------7--------7----|
A-|-----7------7--------5--------5----5--5-5-5--5-5-5---|
E-|-5--5-5-5--5--5--3--3-3-3--3-3-3---------------------|


    F
G-|-----------------|
D-|-----------------|
A-|-----3--------3--|
E-|-1--1-1-1--1-1-1-|



    Am              G                 D
G-|-----------------------------------------------------|
D-|-------------7-------------------------7--------7----|
A-|-----7------7--------5--------5----5--5-5-5--5-5-5---|
E-|-5--5-5-5--5--5--3--3-3-3--3-3-3---------------------|


    F
G-|-----------------|
D-|-----------------|
A-|-----3--------3--|
E-|-1--1-1-1--1-1-1-|




Estrofas (x4):

    Am              G                 D
G-|-----------------------------------------------------|
D-|-------------7-------------------------7--------7----|
A-|-----7------7--------5--------5----5--5-5-5--5-5-5---|
E-|-5--5-5-5--5--5--3--3-3-3--3-3-3---------------------|


    F
G-|-----------------|
D-|-----------------|
A-|-----3--------3--|
E-|-1--1-1-1--1-1-1-|


Estribillo (x2)

    Am              G
G-|---------------------------------|
D-|-------------7-------------------|x3
A-|-----7------7--------5--------5--|
E-|-5--5-5-5--5--5--3--3-3-3--3-3-3-|


    D                F
G-|------------------------------------|
D-|-----7--------7---------------------|
A-|-5--5-5-5--5-5-5------3--------3----|
E-|------------------1--1-1-1--1-1-1-1-|

La cancion sigue con:
Estrofas (x4)
    Am              G                 D
G-|-----------------------------------------------------|
D-|-------------7-------------------------7--------7----|
A-|-----7------7--------5--------5----5--5-5-5--5-5-5---|
E-|-5--5-5-5--5--5--3--3-3-3--3-3-3---------------------|


    F
G-|-----------------|
D-|-----------------|
A-|-----3--------3--|
E-|-1--1-1-1--1-1-1-|

Estribillo (x2)
    Am              G
G-|---------------------------------|
D-|-------------7-------------------|x3
A-|-----7------7--------5--------5--|
E-|-5--5-5-5--5--5--3--3-3-3--3-3-3-|


    D                F
G-|------------------------------------|
D-|-----7--------7---------------------|
A-|-5--5-5-5--5-5-5------3--------3----|
E-|------------------1--1-1-1--1-1-1-1-|

Solo:

G-|------------------------------------------------------|
D-|-7------------------------7---------------------------|x20
A-|---------7-----5-----5------------7------5-----5------|
E-|---5-8-5----3-----3-----0---5-8-5-----3-----3-----3/0-|

G-|-------------|
D-|-------------|
A-|-------------|
E-|----13/5-----|

Una ves terminado el solo, viene una pequeña estrofa en la
que el bajo no hace nada

Luego viene el estribillo que lo repite varias veces,pero
cuando cambia la parte de "cuando la mentira es la verdad", por
"mentira es la unica verdad" significa que esa es la ultima
ves que se va a repetir el estribillo en esta parte de la
cancion, entonces viene el final que es asi:

    A G A
G-|-------|
D-|-------|
A-|-------|
E-|-5-3-5-|




Cualquier cosa mandenmen un mail a
maximiliano_lepore@hotmail.com

Bueno, espero que les guste
Adios
Este fichero es trabajo propio de su transcriptor y representa su interpretación personal de la canción. El material contenido en esta página es
para exclusivo uso privado, por lo que se prohibe su reproducción o retransmisión, así como su uso para fines comerciales.

© LaCuerda.net · Aviso Legal · Privacidad