Acordes de Guitarra » D »Divididos » Hace Que Hace (Tab)

Hace Que Hace
Divididos

Letras, Acordes y Tabs para Guitarra, Bajo y Ukulele

  • C7           B7        E   A E  
       hace que hace y no hace
    
    G#7               C#7             F#7
       milonguita obligada a hace la cama
                B7        Bb7   A7
    por nena bien, y por entregar
                     E     A E
    la ventosa por pavadas
    
    culo duropor tanto mezquinar
    y boicotear al eterno
    subibaja
     
    RIFF
    C7          B7       E7     A  E  RIFF 
      hace que hace y no hace
    C7          B7       E7     A  E
    dice que hace y no dice
    
    
  • Coro
    G|-----------------------------|---------------|---------------------------|
    D|-----------------------------|-------6/9-----|---------------------------|
    A|---------------7--7----------|-----7-----7---|---------------7--7--------|
    E|-8-88-8-7-77-7------5--5-0-0-|-7-9---------9-|-8-88-8-7-77-7------5--5-0-|
    
    Pre-Verso
    G|-------|
    D|-------|
    A|-------|
    E|-0-1-2-|
    
    Verso
    G|---------------------------------------------------|
    D|---------------------------------------------------|
    A|--------4-44-2----------2--2-1--------7--7---------|
    E|-4-44-4--------4-2-22-2--------5-55-5------5--5-0--|
    
    Pre-Verso
    G|-------|
    D|-------|
    A|-------|
    E|-0-1-2-|
    
    Verso
    G|---------------------------------------------------|
    D|---------------------------------------------------|
    A|--------4-44-2----------2--2-1--------7--7---------|
    E|-4-44-4--------4-2-22-2--------5-55-5------5--5-0--|
    
    Pre-Coro
    G|---------------|
    D|-------6/9-----|
    A|-----7-----7---|
    E|-7-9---------9-|
    
    
  • +
    ¡Colabora con nosotros!
    Envíanos tu versión de esta canción

Letra de Hace Que Hace
hace que hace y no hace
milonguita obligada a hace la cama
por nena bien, y por entregar
la ventosa por pavadas
culo duropor tanto mezquinar
y boicotear al eterno
subibaja

RIFF
hace que hace y no hace
dice que hace y no dice
por coqueta,te fuiste para el lado de Gomorra
y por no volver salio
un discodel carajo
surfiladas por el novio de la mama
que cualquier bondi,
le queda bien
riff
hace que hace y no hace...
riff
hace que hace y no hace...
RIFF
(CUALQUIER DUDA O COMENTARIO : SINCEREBRO1@MTV-COM)




[Hace Que Hace chords][Hace Que Hace cifra]
© LaCuerda.net · aviso legal · privacidad · es · en · pt · contacto
DINAMICO