Acordes de Guitarra » C »El Cuarteto de Nos » Whisky en Uruguay (Tab)

Whisky en Uruguay
El Cuarteto de Nos

Letras, Acordes y Tabs para Guitarra, Bajo y Ukulele

  •       Am                    C
    E------------------|  E------------------|
    B------------------|  B------------------|
    G-0-2-4-5-2-4-0-2--|  G-0-2-4-5-2-4-0-2--|
    D-----------------2|  D-----------------2|
    A------------------|  A------------------|
    E------------------|  E------------------|
    
          Am                     C
    E------------------|  E------------------|
    B------------------|  B------------------|
    G-0-2-4-5-2-4-0-2--|  G------------------|
    D-----------------2|  D-----0-2---0---2--|
    A------------------|  A-2-3-----3---3--3-|
    E------------------|  E------------------|
    
          C
    Yo andaba por la vuelta
          Am
    de la boca de la cuadra
    
  • 1|-----------------------------------|
    2|-----------------------------------|
    3|--0--2--4--5--2--4--0--2-----------|
    4|--------------------------2--------|  X3
    5|-----------------------------------|
    6|-----------------------------------|
    
    1|-----------------------------------|
    2|-----------------------------------|
    3|-----------------------------------|
    4|-----------2-----------2-----------|
    5|--3--3--5-----3--5--3-----3--------|
    6|-----------------------------------|
    
    
        C
    Yo andaba por la vuelta
          Am
    de la boca de la cuadra
           F
    
  • +
    ¡Colabora con nosotros!
    Envíanos tu versión de esta canción

Letra de Whisky en Uruguay
Yo andaba por la vuelta
de la boca de la cuadra
cuando vi a un milico narco
que contaba mucha plata
Y de ahí saqué la pistola
y ahí mismo le explicaba
poniendo estaba la gansa
o como un colador quedaba
belibún, belibún, belibún
a mi que mas me da
si hay whisky en Uruguay
Me llevé toda la guita
era una buena tarasca
me llevé toda la guita
y se la di a la flora
Me dijo que me amaba
que no me dejaría
pero gritaba y lloraba
y me vendió a la milicada
Estribillo
Hay quien gusta de la pesca
hay quien gusta de la caza
hay quien gusta del asado
y hay quien gusta de la pasta
A mi me gusta dormir
con la flora en la cama
pero ahora estoy en cana
con grillete y traje a rayas
Estribillo




[Whisky en Uruguay chords][Whisky en Uruguay cifra]
© LaCuerda.net · aviso legal · privacidad · es · en · pt · contacto
DINAMICO