Acordes de Guitarra » C »El Cuarteto de Nos » Ya te vas a mejorar (Tab)

Ya te vas a mejorar
El Cuarteto de Nos

Letras, Acordes y Tabs para Guitarra, Bajo y Ukulele

  • E|-----0-5-4-3-1-0--|-------0---------|
    B|---1--------------|-----0---4-3-0-1-|
    G|-2----------------|---1-------------|
    D|------------------|-2---------------|
    A|------------------|-----------------|
    E|------------------|-----------------|
    
    
    E|--------5-4-3-1-0-|-----1------0------------|
    B|-----1------------|---0------0------0-3-0-1-|
    G|---2--------------|-1------1------1---------|
    D|-2----------------|-------------------------|
    A|------------------|-------------------------|
    E|------------------|-------------------------|
    
    
    LAm                     MI
    Un día yo me iba a trabajar
    
                             LAm
    
  • +
    ¡Colabora con nosotros!
    Envíanos tu versión de esta canción

Letra de Ya te vas a mejorar
Un día yo me iba a trabajar
cuando me caí por la escalera,
entonces me volí un poco anormal
a raíz del golpe en la cabeza.
Los doctores me decían que me iba a recuperar
si seguía el tratamiento con paciencia;
para mi mujer yo siempre había sido un anormal
así que ya no notaba la diferencia.
Mis amigos me venían a visitar,
me decían que no era nada serio;
me palmeaban, se reían por atrás
y hasta me robaban los remedios.
Mi abogado no quería declararme un incapaz
aunque sí me recomendaba un descanso
que dejara mis asuntos, que me fuera a navegar
y que firmara unos papeles por si acaso.
Y allá en el barrio todo el mundo me decía:
ya te vas a mejorar.
Y en la familia todo el mundo me decía:
ya te vas a mejorar.
Ya perdí la paciencia en la lobotomía:
ya te vas a mejorar.
Perdí mi mano izquierda y me duele todavía:
ya te vas a mejorar.
Pero un día me cansé de ser el gil,
entonces me compré la motosierra;
y ahora ando dando vueltas por ahí
mutilando todo lo que se me acerca.
Por ahora casi nadie me trata de subnormal
sin que a los cuatro segundos se arrepienta;
porque yo a mis semejantes quiero a todos por igual
en cubitos de cuarenta por cuarenta.
Y allá en el barrio todo el mundo me decía:
ya te vas a mejorar.
Y en la familia todo el mundo me decía:
ya te vas a mejorar.
Tengo una sonda clavada en la vejiga:
ya te vas a mejorar.
Tres personalidades y ninguna es la mía:
Ya te vas a mejorar.




[Ya te vas a mejorar chords][Ya te vas a mejorar cifra]
© LaCuerda.net · aviso legal · privacidad · es · en · pt · contacto