Acordes de Guitarra » C »Chancho en Piedra » Ska del peral (Tab)

Ska del peral
Chancho en Piedra

Letras, Acordes y Tabs para Guitarra, Bajo y Ukulele

  •                                     B.-17/
    
     D.-5h7-5-----------------.
     A.-------7-5-5h7-3-5-3-0-.
     E.-----------------------.
    
     D.-5h7-5---------------------------------------------.
     A.-------7-5-5h7-7h8-7-5-7-7h8-7-5-5h7-5-3-3h5-3-2-0-.
     E.---------------------------------------------------.
    
    
     A           C                   A                          G
     Algo ha cambiado en nuestras vidas, desde que fue tu partida,
                         A                                 C
     tu falta se hace notar aqui en el peral, tus amigos siempre
                A                         G
     te extrañamos, las locuras en el barro.
    
    
     CORO:                    C                       G
    
  • Am            C              Am                       G
    Algo ha cambiado en nuestras vidas, desde que fue tu partida,
                         Am                                 C
     tu falta se hace notar aqui en el peral, tus amigos siempre
                Am                         G
     te extrañamos, las locuras en el barro.
    
    
     CORO:                    Em                       G
           Y tu gorro de Napoleòn, nunca tuvo un sucesor, el màs
                        C        Am           G
           loco fuiste tù, y por eso te escapaste, hacia el mundo
                        Am
           que inventaste.
    
      Am             C              Am                            G
     La enfermera tiene tus tornillos, junto al viejo cuadernillo,
                          Am
     donde estaba la ecuaciòn, que te robó el doctor, tu camisa de
       C                Am                       G
    
  •     LAm    DO     SOL     DO       RE     MI      MIm      LA*
    E|---5---|---8---|---3---|---3---|---5---|---7---|---7---|---17--|
    B|---5---|---8---|---3---|---5---|---7---|---9---|---8---|---17--|
    G|---5---|---9---|---4---|---5---|---7---|---9---|---9---|---17--|
    D|---7---|---10--|---5---|---5---|---7---|---9---|---9---|---x---|
    A|---7---|---10--|---5---|---3---|---5---|---7---|---7---|---x---|
    E|---5---|---8---|---3---|---3---|---5---|---7---|---7---|---x---|
    
    
    INTRO:
    
    En el intro, mientras suena el bajo, se marcan dos notas y luego un
    pequeño punteo. Mientras se hace el punteo, se juega con esos acordes
    tocandolo al estilo ska...
    
        LAm     DO      LAm                     huaaa!!!
    E|---5---|---8---|---5---|----------5--|
    B|---5---|---8---|---5---|----------5--|
    G|---5---|---9---|---5---|----------5--|
    D|---7---|---10--|---7---|----------7--|
    
  • +
    ¡Colabora con nosotros!
    Envíanos tu versión de esta canción

Letra de Ska del peral
Algo ha cambiado en nuestras vidas, desde que fue tu partida,
tu falta se hace notar aqui en el peral, tus amigos siempre
te extrañamos, las locuras en el barro.
Y tu gorro de Napoleòn, nunca tuvo un sucesor, el màs
loco fuiste tù, y por eso te escapaste, hacia el mundo
que inventaste.
La enfermera tiene tus tornillos, junto al viejo cuadernillo,
donde estaba la ecuaciòn, que te robò el doctor, tu camisa de
fuerza està envuelta, esperando a que vuelvas.
Y tu gorro de Napoleòn...
Y queremos que sepas,
que anhelamos tu vuelta,
porque no hay un lugar
como el peral.
La ves que tù màs nos alegraste, ...(aki la guitarra hace esto):E.-17-.
fue cuando regresaste, y el gorro G.-XX-.
de Napoleòn, se lo puso su dueño A.-XX-.
el màs loco eres tù, y por eso
regresaste, y al peral nunca olvidaste.
Y ganaste de nuevo, el mas loco eres tù
y por eso regresaste, y al peral nunca olvidaste.
Porque el loco màs loco, con los cuerdos dura poco,
porque el loco màs loco ya nunca màs se irà.
Esta tab va dedicada a toos los marranos de chile,
y los k gozan del buen funk!!..y a una personita muy especial,
k la kro mxo mxo...ojala les guste..adios...VIVA EL FUNK!!!!
Y.....VIVA CHILE MIERDA Y LOS CHANCHO EN PIEDRA!!!!!...




[Ska del peral chords][Ska del peral cifra]
© LaCuerda.net · aviso legal · privacidad · es · en · pt · contacto