Acordes de Guitarra » C »Chancho en Piedra » Lophophora (Tab)

Lophophora
Chancho en Piedra

Letras, Acordes y Tabs para Guitarra, Bajo y Ukulele

  •                      SIm 
    Lophophora creo que será 
                             LA  
    mi más proxima reencarnación, 
                             FA#m 
    quiero levantarme con el sol
                            MI  
    bañarme en la bruma matinal. 
                      
                          SIm 
    Una buena manera de vivir 
                            LA  
    es la que necesito llevar 
                              FA#m 
    y en mi forma más espiritual 
                          MI  
    relexionaré con mi sudor 
    
    
    LA -FA#m         LA -FA#m 
    
  •                       Bm
    Lophophora creo que será
                            A
    mi mas proxima reencarnación
                             F#m
    quiero levantarme con el Sol
                            E
    bañarme en la bruma matinal
                        Bm
    Una buena manera de vivir
                          A
    es la que necesito llevar
                            F#m
    y en mi forma mas espiritual
                          E
    reflexionare con mi sudor.
    
    
    A-F#m           A-F#m
    Y comprendi que mi final
    
  • Este es el solo de la canción lophophora.
    Es mi primera canción sacada por mi mismo y eso que solo tengo 14 años,
    pero suena muy bien, para mi excelente. Solo tienes que
    escucharla y veran.
    Ahí va:
    
    Tablatura:
    / = slide
    h = hamer
    
    e-----------------------------------------------------------
    b--5-7-5-7-5-7-5----------5-7-5-7-5-7-5---------------------
    g----------------7-4~~~~----------------7-------------------
    d-----------------------------------------7~~~~-------------
    a-----------------------------------------------------------
    e-----------------------------------------------------------
    
    e--------------5----------------------5---------------------
    b--5-7-5-7-5-7---5-7~~~~--5-7-5-7-5-7---7-5~~~~-------------
    g-----------------------------------------------------------
    d-----------------------------------------------------------
    a-----------------------------------------------------------
    e-----------------------------------------------------------
    
    e------
  • ------------------------|----------------------|------------------------------
    ------------------------|----------------------|------------------10----------
    ---9/11-9/11-9/11-9-7---|-9/11-9/11-9/11-9-7---|-9/11-9/11-9/11-9----11-9/11--
    ----------------------9-|--------------------7-|------------------------------
    ------------------------|----------------------|------------------------------
    ------------------------|----------------------|------------------------------
                                                                                  
    
    -----------------------------|--------------------------|---------------------
    ------------------10---------|--------------------------|---------------------
    -9/11-9/11-9/11-9----11-11/9-|-9/11-9/11-9/11-9-7-9-7---|---------------------
    -----------------------------|------------------------9-|---------------------
    -----------------------------|--------------------------|---------------------
    -----------------------------|--------
  • Tab por Alexis Letelier
    
    Bass
    
    1st verse (x2):
    G-|-----------------------|----------------|
    D-|-----------------------|----------------|
    A-|-2-2----0-2-2--2-1-0-0-|----------------|
    E-|----0-2----------------|-0-2-0-5-5------|
    
    G-|-----------------------------------------------------------|
    D-|-----------------------4-4-3-2-2-------2-4-2---------------|
    A-|-----------4-4-0-2-0-4-----------0-2-4-------4-0-4-2-0-----|
    E-|-0-2-5-2-0-------------------------------------------------|
    
    Chorus:
    G-|-------------2-------------------------------------2-------------------|
    D-|-------2-4-2---0-2-4-------2-4-2-------------2-4-2---0-2-4-------2-----|
    A-|---------------------------------0-2-4---------------------------------|
    E-|-5-0-2---------------5-0-2-------------5-0-2---------------5-0-2-------|
         (4)                 (4)               (4)                 (4)
    
    2nd verse(x2): 
    G-|-----------------------|----------------|
    D-|-----------------------|----------------|
    A-|-
  • +
    ¡Colabora con nosotros!
    Envíanos tu versión de esta canción

Letra de Lophophora
Lophophora creo que será
mi más proxima reencarnación,
quiero levantarme con el sol
bañarme en la bruma matinal.

Una buena manera de vivir
es la que necesito llevar
y en mi forma más espiritual
relexionaré con mi sudor
Y comprendi que mi final
se esta acercando, me está llamando

Olvidarme de la oscuridad
para respirar tranquilidad,
necesito la capacidad
para volar y así visitar
miles de lugares donde no volveré a pisar,
es mi despedida más formal
y a la hora que toque marchar
un beso en tu alma te visitará.
Y presenti que mi final
se esta acercando, me está llevando
Esto a todos mis hermanos marranos quiero que sepan
que cuando tenga mas tiempo les mando el solo porque
ahora me da lata hacer tanta linea haci que cuando
pueda lo hago conformense con esto por mientras
¡VIVA CHILE MIERDA Y LOS CHANCHO EN PIEDRA!




[Lophophora chords][Lophophora cifra]
© LaCuerda.net · aviso legal · privacidad · es · en · pt · contacto