Acordes de Guitarra » C »Chancho en Piedra » Da la Claridad a Nuestro Sol (Tab)

Da la Claridad a Nuestro Sol
Chancho en Piedra

Letras, Notas, Punteos, Tablaturas y Acordes de Guitarra (Tabs & Chords)

  • Letra y Acordes
    SIm                       LA
    Hoy me siento un poco nublado
    SIm                     LA
    y mi estrella se ha apagado,
                   SIm                    LA
    como puedo ver la alegría en nuestro cuerpo
    SIm                       LA
    sin entrar en tu sagrado santuario.
    
    Coro:
    
    FA#m        MI           SIm
    Dá la claridad a nuestro sol
              DO#m
    que se nos va la vida.
    FA#m      MI          SIm
    Ya caminaras sin el temor 
            DO#m
    de tropezar perdida.
    
    
  • Letra y Acordes
      SIm7       LA      LA#     FA#m7    MIm7     DO#m7    FAm7     DOm7
    e|--7--| e|-----| e|-----| e|--9--| e|--7--| e|--9--| e|--8--| e|--8--|
    b|--7--| b|--5--| b|--6--| b|--9--| b|--7--| b|--9--| b|--8--| b|--8--|
    g|--7--| g|--6--| g|--7--| g|--9--| g|--7--| g|--9--| g|--8--| g|--8--|
    d|--7--| d|--7--| d|--8--| d|--11-| d|--9--| d|--9--| d|--10-| d|--8--|
    a|--9--| a|-----| a|-----| a|--9--| a|--7--| a|--11-| a|--8--| a|--10-|
    e|--7--| e|-----| e|-----| e|-----| e|-----| e|--9--| e|-----| e|--8--|
    
    INTRO: LA*-SIm7*-LA*-SIm7*-DO#m7*
    
    
    SIm7                  LA   LA#* 
    Hoy me siento un poco nublado
    SIm7                     LA   LA#*
    y mi estrella se ha apagado,como puedo ver
    SIm7                  LA   LA#*
    la alegría en nuestro cuerpo
    SIm7                     LA    LA#*
    sin entrar en tu sagrado santuario.
    
    
  • Letra y Acordes
    e----------------------------------------------------------------|
    B----------------------------------------------------------------|
    G----------------------------------------------------------------|
    D--------------------7-------------11-7-9------------------------|
    A--9-9-7-9-9-7-9-9-7---9-9-7-9-9-7-------------------------------|
    E----------------------------------------------------------------|
    
    e----------------------------------------------------------------|
    B----------------------------------------------------------------|
    G----------------------------------------------------------------|
    D--------------------7---11-9-7----------------------------------|
    A--9-9-7-9-9-7-9-9-7--------------9-7-----------7--9-------------|
    E--------------------------------------9-7--7-9------------------|
    
    Bm                      A
    Hoy me siento un poco nublado
    Bm                     A
    y mi estrella se ha apagado,
    
    como puedo ver
    
  • Tablatura
     
    
    Da la claridad a nuestro sol(Solo)
    
    e|-----------------------------------------------| 
    B|-----------------------------------------------| 
    G|-------------------------------------9b--------|
    D|--9----9-7-9-7-9/11- 7-6-7---6-7-6-7------9----| 
    A|-----------------------------------------------| 
    E|-----------------------------------------------|
    
    e|----------------------------------------------| 
    B|----------------------------------------------| 
    G|---------------------------7/9-7-6-7-6h7p6/4--|
    D|--9----9-7-9-7-9-7-6-7------------------------| 
    A|----------------------------------------------| 
    E|----------------------------------------------|
    
    e|-------------------------------------------|
    B|-------12b14-12-10-12----------------------| 
    G|-------------------------------------------|
    D|--9--------------------9-7-9-7-9b10-7-9-7--| 
    A|-------------------------------------------| 
    E|-------------------------------------------|
    
    e|--------12-------12-------12----
  • Tablatura
    DA LA CLARIDAD (SOLO) 
    e----------------------------------------------- 
    b----------------------------------------------- 
    g-------------------------------------9b-------- 
    d--9----9-7-9-7-9/11-7-6-7---6-7-6-7------9-----
    a----------------------------------------------- 
    E----------------------------------------------- 
    
    e----------------------------------------------- 
    b----------------------------------------------- 
    g---------------------------7/9-7-6-7-6h7p6/4--- 
    d--9----9-7-9-7-9-7-6-7------------------------- 
    a----------------------------------------------- 
    E----------------------------------------------- 
    
    e----------------------------------------------- 
    b-------12b14-12-10-12--------------------------
    g----------------------------------------------- 
    d--9--------------------9-7-9-7-9b10-7-9-7------ 
    a----------------------------------------------- 
    E----------------------------------------------- 
    
    e--------12-------12-------12------------------- 
    b--
  • Tab p/Bajo
    Intro
    
    G|-------------------------14-|----------------16/17-14-16-----------------|
    D|-16-16-14-16-14-16-14-16----|-16-16-14-16-14-----------------------------|
    A|----------------------------|--------------------------------------------|
    E|----------------------------|--------------------------------------------|
    
    
    G|-------------------------14-|-16/17/16-14--------------------------------|
    D|-16-16-14-16-14-16-14-16----|----------16-14-------------14-16-----------|
    A|----------------------------|----------------16-14-14-16-----------------|
    E|----------------------------|-----------------------------------14---2---|
    
    Verso
    
    G|-------------------------------------------------------------------------|
    D|-------9---7---------9---7-----------4---2---------4---------------------|
    A|---7-9---9---9---7-9---9---9-----2-4---4---4---2h4---4-------------------|
    E|-7-------------7---------------2-------------2----------5-6--------------|
    
    G|------------------------------------
  • +
    ¡Colabora con nosotros!
    Envíanos tu versión de esta canción

Letra de Da la Claridad a Nuestro Sol
Hoy me siento un poco nublado
y mi estrella se ha apagado,
como puedo ver la alegría en nuestro cuerpo
sin entrar en tu sagrado santuario.
Dá la claridad a nuestro sol
que se nos va la vida.
Ya caminaras sin el temor
de tropezar perdida.
Las caricias son las que mas me someten a tu calor
me quemo, mis cenizas aparecen en tu piel amor
corazón,mi alma en tu cuerpo ya se escondió
espero, hija del sol, que devuelvas a mí la emoción
de escupir las mil penas.
Dá la claridad...
Si es que no te veo en mucho tiempo
me conveceré que he muerto.
Así soñaré con tu aliento
siendo tu recuerdo mi único alimento.
Amo que me hables desde la distancia
quiero disfrutar de tu presencia,
ardo con las ganas de besarte en la cara,
ardo con las ganas detenerte en mi cama.
Dá la claridad...
Ya la tempestad se calmará
y brillarán las luces que al evaporar
las promesas
podrán quemar las últimas tristezas.
Dá la claridad a nuestro sol.
Cualquier comentario, pregunta o petición escríbanme.



© LaCuerda.net · Aviso Legal · Privacidad
DINAMICO