Acordes de Guitarra » C »Los Chalchaleros » Que seas vos (Tab)

Que seas vos
Los Chalchaleros

Letras, Acordes y Tabs para Guitarra, Bajo y Ukulele

  • REm- LAm - MI7 - LAm - REm - LAm - MI7 - LAm - MI7 - LAm
                                              Acordes    (Rasg)
    LAm   (MI7)     LAm
    Cuando ya no alumbre
                SOL7         DO
    El candil arisco de mi corazón
                 REm             LAm
    Volvete a mi tierra llevate mis coplas
    MI7         LAm
    -Y cantalas vos
    BIS
    LAm     (MI7)    LAm
    Que mis cerros sepan
                 SOL7            DO
    Como lo he sentido casi sin dolor
                    REm               LAm
    Temblando mis versos allá en la quebrada
    MI7      LAm
    Decíselo vos.
    
    
  • |----7--5--3-----7--5--3-----8--7--5------5--3--2-----5--3--2-----7--5--3---
    |--0-8--7--5--0--8--7--5--0--10-8--7---0--7--5--4--0--7--2--4--0--8--7--5---
    |---------------------------------------------------------------------------
    |---------------------------------------------------------------------------
    |---------------------------------------------------------------------------
    |---------------------------------------------------------------------------
    
    
    
    |----7--5--3-----7--5--3-----8--7--5-----------------------------------------
    |--0-8--7--5--0--8--7--5--0--10-8--7-----------------------------------------
    |----------------------------------------------------------------------------
    |---------------------------------------------------------------------0-1-2--
    |-------------------------------------2-3-2-0-1-2-3-----------0-1-2-3--------
    |---------------------------------------------------0-1-2-3-4----------------
    
    
    
    MIm    (SI7)        MIm
    Cuando ya no me alumbre
    
  • +
    ¡Colabora con nosotros!
    Envíanos tu versión de esta canción

Letra de Que seas vos
Acordes (Rasg)
Cuando ya no alumbre
El candil arisco de mi corazón
Volvete a mi tierra llevate mis coplas
-Y cantalas vos
BIS
Que mis cerros sepan
Como lo he sentido casi sin dolor
Temblando mis versos allá en la quebrada
Decíselo vos.
Estribillo
Que toda la puna vibre con el eco
De cada canción
Que alguien las entone de pie y cara al cielo
Pero que seas vos
Que alguien las entone de pie y cara al cielo
Pero que seas vos. (Acorde final)
La Segunda es con los mismos acordes e introducción.
Quiero darle al viento
Un poncho de notas con flecos de sol
Que envuelto en mi zamba la silbe y las baile
Pediselo vos…
Si te pones triste
Pensa que en la noche embrujada estoy yo
Que si se ha perdido mi canto en la sombra
Perdurara en vos.
Bis estribillo hasta: Acorde final.




[Que seas vos chords][Que seas vos cifra]
© LaCuerda.net · aviso legal · privacidad · es · en · pt · contacto
DINAMICO