Acordes de Guitarra » C »Los Chalchaleros » Luna Cautiva (Tab)

Luna Cautiva
Los Chalchaleros

Letras, Acordes y Tabs para Guitarra, Bajo y Ukulele

  • Intro: G7-C-G7-C
    
                                               -I-
                       G7                         C
    De nuevo estoy de vuelta despues de larga ausencia
                     F          Fm             C
    Igual que la calandria que azota el vendaval
                      G7               C
    Y traigo mil canciones como leñita secas
                  G7                    C
    Recuerdos de fogones que invitan a matear
    
    (repite las notas de -I-)
                                             -II-
    
    Y divise tu rancho a orillas del camino
    A donde los jazmines tejieron un altar
    Al pie de calicanto la luna cuando pasa
    Peino mi serenata la cresta del sauzal
    
    
  • E
    De nuevo estoy de vuelta,
    B7
    Después de larga ausencia;
    E                    A
    Igual que la calandria
    B7
    Que azota el vendaval.
    E                     B7
    Y traigo mil canciones
    E
    Como leñita seca:
    C#m         F#m
    Recuerdo de fogones
    B7                  E
    Que invitan a matear.
    
    Y divisé tu rancho
    A orillas del camino;
    Adonde los jazmines
    
  •          B7            E            B7          E
    1--------------------------------------------------
    2--------------------------------------------------
    3--------------------------------------------------
    4----------------1-2-4-6---------------------------
    5--4-4-3-2^4-2-2----------------------3-4-6-4-3^4--
    6-------------------------0-2-0-2-3-4--------------
       B7               E                B7               E     B7  E
    1--------22----5-5-----44-----7-7----9-5-2--------0^2-0---------0--
    2-------0-0----0-0----0-0-----0-0----------4--2-4---------------0--
    3------2--2----5-5---4--4-----7-7----9-6-2--------1^2-1---------1--
    4------------------------------------------4-2-4----------------2--
    5--2-2------2^5-----4-----4^7-----------------------------0-2---2--
    6-------------------------------------------------------4-------0--
    
                       B7                         E
    De nuevo estoy de vuelta, después de larga ausencia,
                    A                        E
    igual que la calandria que asota el vendaval
                     B7                  E
    
  •              B7                        E        G#7           C#m
     E|--------------------------------------|-----------------------|
     B|--------------------------------------|-----------------------|
     G|--------------------------------------|-----------------------|
     D|--------------------------1-2-4-4-h-6-|-----------------------|
     A|-4-4-3-2-h-4-h-2---1-h-2--------------|----------3-4-6--4-3-4-|
     E|--------------------------------------|-0-2-3-4---------------|
    
    
              B7                E
     E|-------2--------5--------4--------7---|
     B|-0-0--0---0-0--0---0-0--0---0-0--0----|
     G|--------------------------------------|
     D|-----1--------4--------2--------6-----|
     A|--------------------------------------|
     E|--------------------------------------|
    
    
             A        B7       E             B7       E
     E|------9--5-----------------|----------2--------0----||
    
  • +
    ¡Colabora con nosotros!
    Envíanos tu versión de esta canción

Letra de Luna Cautiva
-I-
De nuevo estoy de vuelta despues de larga ausencia
Igual que la calandria que azota el vendaval
Y traigo mil canciones como leñita secas
Recuerdos de fogones que invitan a matear
(repite las notas de -I-)
-II-
Y divise tu rancho a orillas del camino
A donde los jazmines tejieron un altar
Al pie de calicanto la luna cuando pasa
Peino mi serenata la cresta del sauzal
Estribillo
Tu amor es una estrella con cuerdas de guitarra
Una luz que alumbra en la oscuridad
Acercate a la reja sos la dueña de mi alma
Sos mi luna cautiva que me besa y se va
(en -III- Y - IV- repite las notas de -I-)
-III-
Escucha que mis grillos estan enamorados
Que llora mi guitarra sollosos del sauzal
El tintinear de espuelas del rio alla en el vado
Y una noche serena prendida en mi cantar
-IV-
De nuevo estoy de vuelta, mi tropa esta en la huella
Arrieros musiqueros me ayudan a llegar
Tuve que hacer un alto por un toro mañero
Alla en el calicanto, a orillas del sauzal




[Luna Cautiva chords][Luna Cautiva cifra]
© LaCuerda.net · aviso legal · privacidad · es · en · pt · contacto