Acordes de Guitarra » C »Los Chalchaleros » La Cerrillana (Tab)

La Cerrillana
Los Chalchaleros

Letras, Acordes y Tabs para Guitarra, Bajo y Ukulele

  • C#m
    Con la pollera yuta
                  G#7            C#m  C#7
    y las trenzas largas te vi pasar
      F#m            C#m
    y ahí nomás a mi zaino
       B7  A7     G#7          C#m
    en el guardapatio lo hice rayar.
    
    
    
    Desmonté del caballo
    me puse cerca pa' mosquetear
    con el alma en un hilo
    mi negra linda te vi pasar.
    
    
    
    C#m      C#7/G#    F#m
    Como olvidarte Cerrillos
    
  • LA
    Con las polleras yutas,
                MI7              LA / LA7
    las trenzas largas, te v! bailar
    RE              LA
    y ahi nomás a mi zaino
       SOL  FA / MI7            LA         > Bis
    en el guardapatio lo hice rayar.       /
    
    
    
    Desmonte del caballo
    me puse cerca pa' mosquetear.
    Con el alma en un hilo                   Bis
    mi negra linda te v! bailar.           
    
    
    
          (Estribillo)
    
    
  • MI        SI7  MI
    Con la pollera yuta
                  SI7             MI  MI7
    y las trenzas largas te vi pasar  _
       LA            MI                ¦
    y ahí nomás a mi zaino             ¦
       RE    DO SI7             MI     ¦- BIS
    en el guardapatio lo hice rayar.   ¦
                                      _¦
    
    Desmonté del caballo
    me puse cerca pa' mosquetear  _
    con el alma en un hilo         ¦
    mi negra linda te vi pasar.    ¦- BIS
                                  _¦
    
    MI         MI7    LA
    Como olvidarte Cerrillos
              RE7           SOL
    si por tu culpa tengo mujer
    
  • Este es la intro de un temaso de Los Chalchaleros "La Cerrillana"
    
    
    
    1--12--12------------12---I--12--11--12--10--8--7-----------I
    2--13--13------------13---I--13--13--13--12--10--8----------I
    3-------------------------I---------------------------------I
    4--14--14------------14---I--------------12--10--9----------I
    5-------------------------I---------------------------------I
    6-------------------------I---------------------------------I
    
    
    1--7--6--7--5--3--2--I------2--7--7--5--3--
    2--8--7--8--7--5--4--I----4----8--8--7--5--
    3--------------------I--4------------------
    4--------------5--4--I---------9--9--7--5--
    5--------------------I---------------------
    6--------------------I---------------------
    
    Bueno espero que le guste
    Sebastian
  •                          LAm
    1 ---------12--12--12--12---12----12----10----8----
    2 --13-------------------------13----13----12---10-
    3 -------------------------------------------------
    4 -------------------------------------------------
    5 -------------------------------------------------
    6 -------------------------------------------------
    
                 MIm    
    1---7------7---7---5---3------
    2---8------8---8---7---5------
    3-----------------------------
    4-----------------------------
    5-----------------------------
    6-----------------------------
     
                     SI7
    1---2-----2--2--7-----5--3----
    2---4-----4--4--8-----7--5----
    3-----------------------------
    
  • +
    ¡Colabora con nosotros!
    Envíanos tu versión de esta canción

Letra de La Cerrillana
Con la pollera yuta
y las trenzas largas te vi pasar _
y ahí nomás a mi zaino ¦
en el guardapatio lo hice rayar. ¦

Desmonté del caballo
me puse cerca pa' mosquetear _
con el alma en un hilo ¦
mi negra linda te vi pasar. ¦- BIS

Como olvidarte Cerrillos
si por tu culpa tengo mujer
morena cerrillana
con alma y vida te cantaré
todos los carnavales
para Cerrillos te llevaré.
Luego vinieron zambas
bailamos juntos sin descansar _
entre medio los cuetes ¦
y serpentinas del carnaval. ¦- BIS

Miércoles de cenizas
enharinados nos vió pasar _
y en ancas de mi zaino ¦
luego a mi rancho fuimos a dar. ¦- BIS




[La Cerrillana chords][La Cerrillana cifra]
© LaCuerda.net · aviso legal · privacidad · es · en · pt · contacto