Acordes de Guitarra » C »Los Chalchaleros » Luna Tucumana (Tab)

Luna Tucumana
Los Chalchaleros

Letras, Acordes y Tabs para Guitarra, Bajo y Ukulele

  •    SI7               MIm
    Yo no le canto a la luna
             SI7          MIm  MI7
    porque alumbra y nada mas
       LAm               MIm
    le canto porque ella sabe
          SI7       MIm
    de mi largo caminar.
    
    Ay lunita tucumana
    tamborcito calchaquí
    compañera de los gauchos
    en las sendas de Tafí.
    
       RE7              SOL
    Perdido en las cerrazones
                 RE7                SOL  MI7
    quien sabe vidita por donde andaré
          LAm           MIm
    mas cuando salga la luna,
    
  •                  MIm B7                  B7         MIm
    1--------------------------------------------------------------
    2--------------------------------------------------------------
    3--------------------------------------------------------------
    4-----2-2-2-2-2^5-5-4-4-4-4-4^7-----9-9-9-9-10-9---2-2-2-2-3-2-
    5--------------------------------------------------------------
    6---0--------------------------------------------0-------------
    
                 LAm               SOL      B7       MIm     B7  MIm
    1-------------------------------------3--------2----------2---0--
    2------------------10--12--13--------3--------0-----------0---0--
    3----9-9-9-12-10-9--9-9--9----------0--------2------------2---0--
    4----------------------------------------------------2----1---2--
    5---------------------------------------0-1-2----0^1^2----2---2--
    6------------------------------0-2-3----------------------0---0--
      SI7               MIm
    Yo no le canto a la luna
             SI7          MIm  MI7
    porque alumbra y nada mas
       LAm               MIm
    
  •     MIm           B7              B7           MIm
    1-----------------2---------------2------------------------------
    2-----------------4---------------4------------------------------
    3-----------------2---------------2-4-4-4-4^5-4------------------
    4-----2-2-2-2-2^5-4-4-4-4-4-4^7---4---------------2-2-2-2^4-2----
    5-----------------2---------------2------------------------------
    6---0-------------------------------------------0----------------
    
        LAm               MIm               SOL     B7 MIm       B7 MIm
    1--------0-2-3-2-0--------5--7---8----------3----2-0------------0------
    2------3-----------------7--8--10-----------0----0-0------------0------
    3-----------------------6--9--9-------------0----2-0------------0------
    4-------------------------------------------0----1-2------------2------
    5-------------------------------------------2----2-2--------0-2-2------
    6---0--------------------------------0-2-3--3--2---0--0^2^3-----0------
    
    
       MIm      SI7     MIm
    Yo no le canto a la luna
             SI7          MIm  MI7
    
  • +
    ¡Colabora con nosotros!
    Envíanos tu versión de esta canción

Letra de Luna Tucumana
Yo no le canto a la luna
porque alumbra y nada mas
le canto porque ella sabe
de mi largo caminar.
Ay lunita tucumana
tamborcito calchaquí
compañera de los gauchos
en las sendas de Tafí.
Perdido en las cerrazones
quien sabe vidita por donde andaré
mas cuando salga la luna,
cantaré, cantaré
a mi Tucumán querido,
cantaré, cantaré, cantaré.
Con esperanza o con pena,
en los campos de Acheral,
yo he visto la luna buena,
besando el cañaveral.
Si en algo nos parecemos,
luna de la soledad:
yo voy andando y cantando,
que es mi modo de alumbrar.




[Luna Tucumana chords][Luna Tucumana cifra]
© LaCuerda.net · aviso legal · privacidad · es · en · pt · contacto