Acordes de Guitarra » C »Catupecu Machu » Batalla (Tab)
  • -----------------------------------------------
         (tocar rapido esto)                     /
                  /                             /
    4-/(1-1-1-1-1-2-2-2-2-2)---4--/            /
    3-/---------------------1-----/           /
                                             /
                                            /----------(REPETIR 4 VECES)
    4-/ 1-2-4--------/                     /
    3-/ -----1-3-4---/                    /
    2-/-----------2-4/                   /
                                        /
    -----------------------------------/
    
    
    1)riff 5 VECES MAS!!!
    
    
    ESTOS SON LOS ACORDES QUE USAN EN TODO EL TEMA!!
    
    MIb:(5ta)       MIm:(5ta)      #Sol:(5ta)     #Fa:(5ta)
    
  • E||-----------------------------||
    B||-----------------------------||
    G||--3p2-3p2------3p2-3p2-------||
    D||-----------3------------3----||x2
    A||-----------3------------3----||
    E||-----------0h1----------0h1--||
    
    E||------------||
    B||------------||
    G||------------||
    D||--3---------||x4
    A||--3---------||
    E||--1---------||
    
    E||-----------------------------||
    B||-----------------------------||
    G||--3p2-3p2------3p2-3p2-------||
    D||-----------3------------3----||x2
    A||-----------3------------3----||
    E||-----------0h1----------0h1--||
    
  • +
    ¡Colabora con nosotros!
    Envíanos tu versión de esta canción

Letra de Batalla
Un infierno, un tormento, resetear...
Me destierro a las sombras
caigo en mi propia trampa
batallo en el tormento
cambio de roll en medio del juego.
Cuenta de regresion
se activan piel y huesos
giro la llave
cambio de tiempo.
Un infierno, un tormento, resetear...
Desactivo los parpados
activo el sueño
un espejo me devuelve inverso
sueño ciencia ficcion
transpiro, me irrito
un peligro encuentro
alguien me resetea o soy yo mismo
resetear todo
reiniciar el ciclo.




[Batalla chords][Batalla cifra]
© LaCuerda.net · aviso legal · privacidad · es · en · pt · contacto