Acordes de Guitarra » C »Catupecu Machu » A veces vuelvo (Tab)

A veces vuelvo
Catupecu Machu

Letras, Acordes y Tabs para Guitarra, Bajo y Ukulele

  •               C#5            G#5         Hacer esto sobre la estrofa.
    e------------------------- / -----------------------I
    b-------------6-6-6-6-6--- / ----------6-6-6-6-6----I
    g-------------6-6-6-6-6--- / ----------6-6-6-6-6----I
    d------------------------- / -----------------------I
    a---4-4-4-4-4-4----------- / 4-4-4-4-4-4------------I
    E------------------------- / 4-4-4-4-4-4------------I
    
    C#5/G#5
    Olvido todo este frió reunido de una sola vez.
    De vez en cuando, cada tanto
    los juegos prohibidos nos sacan ese frió.
    Escurro entre tus dedos
                             G#5
    tus canciones, tus mitos hoy.
    
    Pre-Estribillo
    C#5
    Y es que estamos desesperados
    C#*
    
  • Intro: DO
    
    
    DO
    Olvido, todo ese frio reunido de una sola vez.
    De vez en cuando, cada tanto...
    Los juegos prohibidos nos sacan ese frio.
    Escurro entre tus dedos
                             FA
    Tus canciones, tus mitos hoy.
      DO
    Y es que estamos desesperados
    RE
    Por encontrarnos y vernos hoy... Y vernos hoy eh!...
    
    
    FA        LAm
    Más deseo más me alejo
    SOL
    Soy un extraño aquí en mi cuerpo
    
  •               C#              C#
    e-------------x---------------x------------I
    b-------------6---------------6------------I
    g-------------6---------------6------------I
    d-------------x---------------x------------I
    a--4-4-4-4-4--4--4-4-4-4-4-4--4------------I
    E-------------x---------------x------------I
    
    Olvido todo este frio reunido de una sola vez.
    De vez en cuando, cada tanto
    los juegos prohibidos nos sacan ese frio.
    Escurro entre tus dedos
    tus canciones, tus mitos hoy.
    
    Pre-Estribillo
    
    C#5
    Y es que estamos desesperados
    D#5
    por encontrarnos y vernos hoy
    
  • E-0---0---|
    B-7---7---|
    G-7---7---|x8
    D-0---0---|
    A-5---0---|
    E-0---5---|
    
    
    
    INTRO
    Olvido todo este frio reunido de una sola vez.
    INTRO
    De vez en cuando, cada tanto
    INTRO
    los juegos prohibidos nos sacan ese frio.
    INTRO
    Escurro entre tus dedos
    INTRO                         F
    tus canciones, tus mitos hoy.
     D5
    
  • e------------------------------------------------------
    b-----------6--6-6-----6-6-----6--6-6--------6--6-6----
    g---6-6-6---6--6-6-6-6-6-6-----6--6-6--------6--6-6----
    d---6-6-6---6--6-6-6-6-6-6-----6--6-6--------6--6-6----
    a---4-4-4----------4-4---------------------------------
    E-------------------------4-4---------4-4--4--4-----4--
    
    CON INTRO DE BASE:
    
    Olvido todo este frio reunido de una sola vez.
    De vez en cuando, cada tanto
    los juegos prohibidos nos sacan ese frio.
    Escurro entre tus dedos
                              G#5
    tus canciones, tus mitos hoy.
    
    C#5              C#5
    Y es que estamos desesperados
    G#5                G#5
    por encontrarnos y vernos hoy
    
  • +
    ¡Colabora con nosotros!
    Envíanos tu versión de esta canción

Letra de A veces vuelvo
Olvido todo este frió reunido de una sola vez.
De vez en cuando, cada tanto
los juegos prohibidos nos sacan ese frió.
Escurro entre tus dedos
tus canciones, tus mitos hoy.
Pre-Estribillo
Y es que estamos desesperados
por encontrarnos y vernos hoy
y vernos hoy que...
Mas deseo mas me alejo
soy un extraño aquí en mi cuerpo
tanta calma desespero
salgo mucho a veces vuelvo
Mas deseo mas me alejo
soy un extraño aquí en mi cuerpo
tanta calma desespero
salgo mucho a veces vuelvo
Crujen los maderos de viejos andenes.
Las vías muertas nos quieren llevar
a nuevos cruces infinitos
Destinos imposibles,
noches de nunca acabar.
Pre-Estribillo
Y es que estamos desesperados
por encontrarnos y vernos hoy
Maaaa aaaaaas
Estribillo
Mas deseo mas me alejo
soy un extraño aquí en mi cuerpo
tanta calma desespero
salgo mucho a veces vuelvo
Mas deseo mas me alejo
soy un extraño aquí en mi cuerpo
tanta calma desespero
salgo mucho a veces vuelvo
Maaaaaa aaaasss
PUNTEO:
Mas deseo mas me alejo
soy un extraño aquí en mi cuerpo
tanta calma desespero
salgo mucho a veces vuelvo
salgo mucho a veces vuelvo,
salgo mucho a veces vuelvo,
salgo mucho a veces vuelvo,
salgo mucho
a veces vuelvo.....
POR JUANMA COLOMBARA. ES UNA CORRECCIÓN DE VARIAS
LETRAS CON ACORDES QUE VI EN INTERNET Y NO ESTABAN DEL
TODO BIEN.SI TIENEN ALGO PARA AGREGAR O CORREGIR SERÁ BIENVENIDO!




[A veces vuelvo chords][A veces vuelvo cifra]
© LaCuerda.net · aviso legal · privacidad · es · en · pt · contacto