Acordes de Guitarra » C »Catupecu Machu » Entero o a pedazos (Tab)

Entero o a pedazos
Catupecu Machu

Letras, Acordes y Tabs para Guitarra, Bajo y Ukulele

  • A   Fmaj7(#11)
    
    A
    Ay! Te superaste y lo vi, vi que nace todo entero
                            Fmaj7(add b5)
    y algo se pierde por el modo de hacerlo.
    
    Salgo de este pozo y arranco todo de cero
    y ahora se inclina la balanza y ahora pido yo.
    
    Pido que se abra todo, porque acá voy de nuevo,
    entero o a pedazos pero voy, voy, voy, voy.
    
    A   Fmaj7(#11)
    
    Voy aunque me quemes fuego, fuego te llevaste un sueño,
    y me clavaste una lanza en el corazón.
    
    D                       E
    Vi ayer, oh! tan lejos, oh! cosas sin nombre.
    
  • intro Bbsus4  Bb  Bb9  Bb
          Bbsus4  Bb  Bb9  Bb
          Bbsus4  Bb  Bb9  Bb
          F#maj7(#11)
          Bbsus4  Bb  Bb9  Bb
          F#maj7(#11)
          Bb  Bbsus4  Bb  Bb9  Bb
          Bb  Bbsus4  Bb  Bb9  Bb
          F#maj7(#11)
          Bb  Bbsus4  Bb  Bb9  Bb
          Bb  Bbsus4  Bb  Bb9  Bb
          F#maj7(#11)
    
    Bb
    ay! te superaste y lo vi
    vi que nace todo entero
                          F#maj7(#11)
    y algo se pierde por modo de hacerlo
    
     Bb
    
  • INTRO A: Gaby
    |------------------------------------------------------|
    |--3b---1---3---3----------3b--3--3/1------------------|
    |-------------------------------------3----------------| X2
    |------------------------------------------------------|
    |------------------------------------------------------|
    |------------------------------------------------------|
    
     CAMBIO A
    |-----------------------|
    |-----------------------|
    |-----------------------| X2
    |-----------------------|
    |--0-0------0++++++-----|
    |--0-0------0++++++-----|
      \_PM_/               
    
    
    INTRO B
    |----------------------------------------------------------|
    
  • INTRO A: Gaby
    |------------------------------------------------------|
    |------------------------------------------------------|
    |------------------------------------------------------| X2
    |------------------------------------------------------|
    |---5b---5--3--5-5-----5b---5—5p3----------------------|
    |--------------------------------6---------------------|
    
    
     CAMBIO A
    |-----------------------------------|
    |-----------------------------------|
    |-----------------------------------|
    |-----------------------------------|
    |-----1—-2/3--1---------1—2\3--1----|
    |--2------------2----2-----------2--|
    
    
    INTRO B
    |----------------------------------------------------------|
    
  • intro:
    1er guitarra
    E||-----------------------|
    B||-----------------------|
    G||--3/1/3-3--4-2--4--2---|      guitarra2:A5
    D||---------------------5-|  x2
    A||-----------------------|
    E||-----------------------|
    segunda guitarra
    E||-----------------------|
    B||-----------------------|
    G||-4-2-4-4-4-2-4---------|
    D||---------------4--2/0--|     guitarra3:D5
    A||-----------------------|
    E||-----------------------|
    tercer guitarra
    E||-----------------------|
    B||-----------------------|
    G||-----------------------|  x2
    D||-----------------------|  acompañado por la segunda
    A||--3---5---6---5----3---|  guitarra con un F5 
    E||-----------------------|
    1er guitarra
    E||--4--4---6-4--3----1/3-|
    B||-----------------------|
    G||-----------------------|
    D||-----------------------|    guitarra2:F5
    A||-----------------------|
    E||-----------------------|
    
    tercer guitarra
    E||-----------------------|
    B||-----------------------|
    G||-----------------------|
    D||----------------
  • +
    ¡Colabora con nosotros!
    Envíanos tu versión de esta canción

Letra de Entero o a pedazos
Ay! Te superaste y lo vi, vi que nace todo entero
Fmaj7(add b5)
y algo se pierde por el modo de hacerlo.
Salgo de este pozo y arranco todo de cero
y ahora se inclina la balanza y ahora pido yo.
Pido que se abra todo, porque acá voy de nuevo,
entero o a pedazos pero voy, voy, voy, voy.
Voy aunque me quemes fuego, fuego te llevaste un sueño,
y me clavaste una lanza en el corazón.
Vi ayer, oh! tan lejos, oh! cosas sin nombre.
Hasta que se apareció, todo estalla alguna vez
párense, todos de pie, oh! subí el volumen cero
Fui semilla alguna vez enterrada viva
y puedo ser la pura savia y florecerlo.
Vi ayer, oh! tan lejos, oh! cosas sin nombre.
Hasta que se apareció, todo estalla alguna vez
párense, todos de pie, oh! subí el volumen cero.
Calma no te vayas que, la adrenalina
quiero vivirla de este modeo y acelero!
Si la cuenta dura 10, ya quiero pista,
sólo soporto hasta cuatro y depego.
Vi ayer, oh! tan lejos, oh! cosas sin nombre.
Hasta que se apareció, todo estalla alguna vez
párense, todos de pie, oh! subí el volumen cero.
Cosas sin nombre a kilometros de hoy
Cosas sin nombre a kilometros de hoy
Cosas sin nombre a kilometros de hoy
Cosas sin nombre y si voy sacudanme...
esta es una transcripción de la cual no aseguro
%100 fidelidad.
de todos modos suena casi igual, solo faltan
algunas notas por el F... pueden probar,
en vez de Fmaj7(#11), Dm, Dm6, Bm7(b5), F(#11), etc
yo encontré que Fmaj7(#11) era el que mas fiel sonaba.
una ayuda:
oo xxo
====== I 0||||| I |||||| I |||0||
|||||| |||0|| |||0|0 |00|||
||000| |00||| ||||0| ||||||
|||||| |||||| |||||| ||||||
opcionales:
xxo xxo o x x x o
|||||0 I |||||0 I |||||| I |||||O I
|||0|| |||0|| |0|0|| |||O||
||||0| |||||| ||0|0| |OO|||
|||||| |||||| |||||| ||||||




[Entero o a pedazos chords][Entero o a pedazos cifra]
© LaCuerda.net · aviso legal · privacidad · es · en · pt · contacto