Acordes de Guitarra » C »Catupecu Machu » Y lo que quiero es que pises (Tab)

Y lo que quiero es que pises
Catupecu Machu

Letras, Notas, Punteos, Tablaturas y Acordes de Guitarra (Tabs & Chords)

  • Letra y Acordes
    B: ---------------------------------|
    G: ---------------------------------|
    D: ---9-8-----9-8-----9-8---9-------|
    A: ---7-6-----7-6-----7-6---7-9-9---|
    E: -8-------8-------8---------7-7---|
    
    
    RIFF (8 veces al principio)
    
    
    B            Esus2             Bsus2
    Mientras que uno anclaba, otro sin medir
    
              Esus2            Bsus2
    Cambio la forma adecuada y se fue, hey
    
    
    RIFF (2 veces)
    
    
    
  • Tablatura
    RIFF A:
    D#||--------------------------|--------------------------|
    A#||--------------------------|--------------------------|
    F#||--------------------------|--------------------------|
    C#||--3--x--x-----3--x--x-----|--3---x-----5-----0-------|
    G#||--3--x--x-----3--x--x-----|--3---x--3--3-----0--x----|
    D#||--1--0--x--0--1--0--x--0--|--1---0--1--3--------x--0-|
    
    Riff B:
    D#||--------------------------|--------------------------|
    A#||--------------------------|--------------------------|
    F#||--------------------------|--------------------------|
    C#||--3--x--3--x--3--x--3--x--|--3--x--3--5-----5-----5--|
    G#||--3--x--3--x--3--x--3--x--|--3--x--3--3-----3-----3--|
    D#||--1--0--1--0--1--0--1--0--|--1--0--1--3-----3-----3--|
    
    INTRO: Riff A x2 - Riff B X2 - Riff A x4
    
    Verso:
                    mientras que uno anclaba...
    
  • Tab p/Bajo
    Arranca en silencio las 2 primeras vueltas solo tocando unos arreglos...
    
    Esta es la BASE (masomenos):
    G:-------------------------------------------------------------------|
    D:-------------------------------------------------------------------|
    A:-----------------------3----------------------3--------------------|
    E: -3-0—-0-3-0—0-3-0--0-3-0--0-3-0--0-3------0-3-0--0-3-0--0-3-0-0---|
    
    
     Cuando Fer dice “Mientras que uno anclaba otro sin medir”... toca:
    G:------------------------------------------------------------------|
    D:------------------------------------------------------------------|
    A:------------------------------------------------------------------|
    E:-3-3-3-3-3-3-3-3-3-3-3-3------------------------------------------|
    
    
    Y cuando pronuncia la palabra "medir" cambia a:
    G:------------------------------------------------|
    D:------------------------------------------------|
    A:-3-3-3-3-3-3-3-3-3-3-3-3------------------------|
    E:------------------------------------------------|
    
    
  • Tab p/Bajo
    Esta es la BASE:
    G:----------------------------------------------------------------------------------|
    D:----------------------------------------------------------------------------------|
    A:-------------------------------------------------------------3--------------------|
    E:---3-0--0-3-0--0-3-0--0-3--0-3-0--0-3-0--0-3-0-0--3---0-3-0—-0-3-0—0-3-0--0-3-0--0-3-0
    --0-3---0-3-0--0-3-0--0-3-0-0----------------------------|
    
    
     Cuando dice Mientras que uno anclaba otro sin medir... toca:
    G:------------------------------------------------------------------|
    D:------------------------------------------------------------------|
    A:------------------------------------------------------------------|
    E:-3-3-3-3-3-3-3-3-3-3-3-3------------------------------------------|
    
    
    
    
    
    Cuando Fernando termina de cantar repetí la BASE:
    G:---------------------------------------------|
    D:---------------------------------------------|
    A:--------------------------------------------
  • Batería
    C:Crash
    c:China(se puede tambien usar un Ride)
    HH:Hit Hat
    R:redoblante
    B:Bombo
    t1:tom 1
    t2:tom 2
    t3:cancha
    
    1:pegale al plato y despues agarralo
    0:pegale con fuerza
    o:pegale despasio
    
    Intro:
     C:---------------1--0-----------0-
     c:--------ooooooo-------oooooo----
    t3:-0------------------------------
     R:-0------------------------------
    
    EH!!
    
    HH:-o--o--o--o--o--o--o--o--o--o--o
     R:----o-----o-----o-----o-----o---
     B:-o-----o-----o-----o-----o-----o
    
    Verse:
    
    mientras q uno aclama otro sin medir
     C:---0-----------------------------
    HH:------o--o--o--o--o--o--o--o--o--
     R:------o-----o-----o-----o-----o--
     B:---o-----o-----o-----o-----o-----
    
    cambio la forma adecuada y se fuee 
    HH:---o--o--o--o--o--o--o--o--o-----
     R:------o-----o-----o-----o-----00-
    t3:------------------------------00- 
     B:---o-----o-----o-----o-----o-----
    EHH!!
    
     c:---0--0--0--0--0--0--0--0--0--0--0--0--0000000-
     R:------o-----o-----o-----o-----o-----o----------
    t3:---------------0
  • +
    ¡Colabora con nosotros!
    Envíanos tu versión de esta canción

Letra de Y lo que quiero es que pises
RIFF (8 veces al principio)
Mientras que uno anclaba, otro sin medir
Cambio la forma adecuada y se fue, hey
RIFF (2 veces)
Siempre hay un costo y un pago por ir y venir
Siempre hay un cierre cerrado, lo se
Abro el costurero, busco y salgo a descoser
Y que si quiero voy decíme lo mejor
Y lo peor deja que yo me entero
Y lo que quiero es que pises sin el suelo ohoho
Oho oho oho oho y busco, busco ohoho
RIFF (4 veces)
Consciente de mi inconsciencia me creo sin fin
Y subo mucho mas alto que ayer, hey
RIFF (2 veces)
Llego al extremo, lo paso y empiezo a sentir
Que con los ojos cerrados se ve
Abro el costurero, busco y salgo a descoser
Y que si quiero voy decíme lo mejor
Y lo peor deja que yo me entero
Y lo que quiero es que pises sin el suelo ohoho
Oho oho oho oho y busco, busco ohoho
RIFF (x 4)
Y lo que quiero es que pises sin el suelo
Y lo que quiero es que pises sin el suelo
Y lo que quiero es que pises sin el suelo
Y lo que quiero es que pises sin el suelo
RIFF FINAL:
*****************************************************************
MODIFICACION A LA TRANSCRIPCION DE:
Ezequiel Cerino (ezequielcerino@hotmail.com)
por Diego Serrano
*****************************************************************

Videos de Y lo que quiero es que pises
[ver más videos]

[ver todas las canciones]


© LaCuerda.net · Aviso Legal · Privacidad