Acordes de Guitarra » C »Caramelos de Cianuro » el Martillo (Tab)
  • Letra y Acordes
    la intro es muy cencilla:
    
    ---------------------------
    ---------------------------
    ---------------------------
    ---------------------------
    ---------------------------
    -0-0-3-3-0-0-5-5-0-0-0-0-0-
    
    esto lo haces 2 veces, dspués:
    
    ---------------------------
    ---------------------------
    -------------2-2-----------
    -2-2-2-2-2-2-2-2-2-2-2-2-2-
    -2-2-2-2-2-2-0-0-2-2-2-2-2-
    -0-0-3-3-0-0-----0-0-0-0-0-
    
    se que hay mucho mas, pero esto es todo lo que tengo hasta ahora.
  • Tablatura
         G5  A#5  G5   C     G5
    e--------------------------------
    B--------------------------------
    G--------------------------------
    D----5-5/8-8--5-5/10-10-55555----
    A----5-5/8-8--5-5/10-10-55555----
    E----3-3/6-6--3-3/8--8--33333----
    
    Bajo.
    G-------------------------------
    D-------------------------------
    A-------------------------------
    E----0-0-3-3-0-0-5-5-0-0-0-0-0--
    
    
    RITMO 2.
    Guitarra.
         G5    A#5    C5       D5         D5       Db5       D5 
    e--------------------------------------------------------------
    B--------------------------------------------------------------
    
  • Tab p/Bajo
    ESTA ROLA FUÉ TRANSCRITA
    POR FELIX GUERRA. 
    DESDE:MATURIN-MONAGAS:VENEZUELA
    
    INTRO:
    
    -------------------------------------------------------
    -------------------------------------------------------
    -----------------------3--------------------(4 veces)--
    --3-3---6-6---3-3---6-----3-3-3-3-3--------------------
    
    
    parte 1
    --------------------------------------------------------------------
    --------------------------------------------------------------------
    -------------------3------------------------------------3-----------
    -3-3---6-6--3-3--6---3-3-3-3-3------3-3---6-6---3-3---6---3-3-3-3-3-
     Me  caí  por  que  el  triciclo  ya  no  tiene  gasolina.
    
    
    ------------------------------------------------------------------------
    ------------------------------------------------------------------------
    ------------------------------------------------------------------------
    -------3-3--------6-6------------8-8-------10-10-----10-10--9-9--10-----
    sI me prestas tu martillo 
  • Tab p/Bajo
     - natural harmonic
    [n]  - artificial harmonic
    n(n) - tapped harmonic
     ~   - vibrato
     tr  - trill
     T   - tap
     TP  - trem. picking
     PM  - palm muting
    \n/  - tremolo bar dip; n = amount to dip
     \n  - tremolo bar down
     n/  - tremolo bar up
    /n\  - tremolo bar inverted dip
     =   - hold bend; also acts as connecting device for hammers/pulls
     <> - volume swell (louder/softer)
     x   - on rhythm slash represents muted slash
     o   - on rhythm slash represents single note slash
    
    Misc Legend
    -----------
     |  - bar
    
  • +
    ¡Colabora con nosotros!
    Envíanos tu versión de esta canción





© LaCuerda.net · aviso legal · privacidad · contacto