Acordes de Guitarra » C »Canciones Populares » Martinillo (Tab)

Martinillo
Canciones Populares

Letras, Notas, Punteos, Tablaturas y Acordes de Guitarra (Tabs & Chords)

  • Letra y Acordes
    VERSIÓN EN LA ESCALA DE RE EN LA SEGUNDA POSICIÓN
    
    e-----------------------------------------------
    B-----------------------------------------------
    G-------------------------------1--------1------
    D--0--2--4--0--0--2--4--0--3--4-----3--4--------
    A-----------------------------------------------
    E-----------------------------------------------
    
    e-----------------------------------------------
    B-----------------------------------------------
    G--2-4-2----------2-4-2-------------------------
    D--------5-4--0---------5-4--0--0---0---0---0---
    A---------------------------------0-------0-----
    E-----------------------------------------------
  • +
    ¡Colabora con nosotros!
    Envíanos tu versión de esta canción



[ver todas las canciones]


© LaCuerda.net · Aviso Legal · Privacidad
DINAMICO