Acordes de Guitarra » C »Canciones Populares » El Carnavalito (Tab)

El Carnavalito
Canciones Populares

Letras, Acordes y Tabs para Guitarra, Bajo y Ukulele

  • Em                    C
    Llegando está el carnaval
    D7                 G
    Quebradeño mi cholitay
    Em                    C
    Legando está el carnaval
    D7                 G
    Quebradeño mi Cholitay
    G      D7     G
    Fiesta de la Quebrada
    D7     G     B7   Em
    Humahuaqueña para cantar
    G      D7     G
    Erke Charango y bombo
    D7     G     B7   Em
    Carnavalito para bailar.
    Em      C   D7          G
    Quebradeño, humahuaqueñito
    Em      C   D7          G
    Quebradeño, humahuaqueñito.
    
  • DICE ASI:
    
    
    1.----------------------------|
    2.-----1----------1-----------|
    3.-------2-0-2------2-0-2--0-2|
    4.--2-----------2-------------|
    
    1.--------------------------------------|----------------------------------------------|
    2.-------------1-0----------------------|
    3.-----2-2-2-2-----2-0-0-0-0-0-0-2-0----|
    4.--2----------------------------------2|----------------------------------------------|
    
    
    1.--------------------------------------|----------------------------------------------|
    2.-------------1-0----------------------|
    3.-----2-2-2-2-----2-0-0-0-0-0-0-2-0----|
    4.--2----------------------------------2|----------------------------------------------|
    
    1.-0-0-0---3-0-0-0----3-0-0-0-----------|----------------------------------------------|
    2.-------3---------3----------3-1-------|
    3.---------------------------------2----|
    4.--------------------------------------|----------------------------------------------|
    
    1.-0-0-0---3-0-0-0----3-0-0-0-----------|----
  • e|-0--5--5--5--5--8--7--5--3--3--3--5--2--3---------|
    B|--------------------------------------------------|
    G|--------------------------------------------------|x2
    D|--------------------------------------------------|
    A|--------------------------------------------------|
    E|--------------------------------------------------|
    
    e|-0--0--0--0--0----3--0--0--0--0-----3-------------|
    B|----------------3----------------3----------------|
    G|--------------------------------------------------|x2
    D|--------------------------------------------------|
    A|--------------------------------------------------|
    E|--------------------------------------------------|
    
    e|-0--0--0--0---------------------------------------|
    B|-------------3--3--1------------------------------|
    G|--------------------------------------------------|
    D|--------------------------------------------------|
    A|--------------------------------------------------|
    E|--------------------------------------------------|
  • Este es el requinto que yo saqué de la canción aunque no es muy largo
    pero espero que les guste.
    
    
    e|--------------------------------------------------|
    B|--------------------------------------------------|
    G|-----0--0--0--0--0--0--3--2--0--------------0-----|
    D|--0-----------------------------3--3--3--0-----3--|
    A|--------------------------------------------------|
    E|--------------------------------------------------|
    
    
    e|--------------------------------------------------|
    B|--------------------------------------------------|
    G|-----0--0--0--0--0--0--3--2--0--------------0-----|
    D|--0-----------------------------3--3--3--0-----3--|
    A|--------------------------------------------------|
    E|--------------------------------------------------|
    
    
    e|-----------------|-----------------|
    B|-----------------|-----------------|
    G|-----------------|-----------------|
    D|--0--0--0--0--3--|--0--0--0--0--3--|
    A|-----------------|-----------------|
    E|-----------------|-------
  • armonica en do
    
    3(4)(4)(4)(4)(4)(5)---5(4)444(3)(4)4
    3(4)(4)(4)(4)(4)(5)---5(4)444(3)(4)4
    
    3332(3)3332(3) 333 2(1)1
    
    3332(3)3332(3)3332(3)(4)4(4)4(4)(4)(4)
    
    3(4)(4)(4)(4)(4)(5)-5(4)444(3)(4)4
    3(4)(4)(4)(4)(4)(5)-5(4)444(3)(4)4
    
    3332(3)3332(3) 333 2(1)1
    
    3332(3)3332(3)3332(3)(4)4(4)4(4)(4)(4)
    
    
    
    ahora sì corregida ta perfecta...
  • mi la la la do si la sol sol sol mi la sol.  (Bis)
    
    
    mi mi mi re sol mi mi mi re sol mi mi mi re do do.
                                                        (ESTRIBILLO)
    mi mi mi re sol mi mi mi re sol mi mi mi re sol la.
    
    
    la la si do sol sol sol la sol mi. (bis)
    
    
    mi mi mi re sol mi mi mi re sol mi mi mi re do do.
    
    mi mi mi re sol mi mi mi re sol mi mi mi re sol la sol# la sol# la la la
     (ESTRIBILLO)
    
    
    
    
    
    
    Hola hoy les paso la tradicional canción argentina:
     "El Carnavalito" o "El Humaoaqueño"
  • +
    ¡Colabora con nosotros!
    Envíanos tu versión de esta canción

Letra de El Carnavalito
Llegando está el carnaval
Quebradeño mi cholitay
Legando está el carnaval
Quebradeño mi Cholitay
Fiesta de la Quebrada
Humahuaqueña para cantar
Erke Charango y bombo
Carnavalito para bailar.
Quebradeño, humahuaqueñito
Quebradeño, humahuaqueñito.
Fiesta de la quebrada
Humahuaqueña para cantar
Erke Charango y bombo
Carnavalito para bailar.
Fiesta de la quebrada
Humahuaqueña para cantar
Erke charango y bombo
carnavalito para bailar.




[El Carnavalito chords][El Carnavalito cifra]
© LaCuerda.net · aviso legal · privacidad · es · en · pt · contacto