Acordes de Guitarra » C »Camila » Esto es verdad (Tab)

Esto es verdad
Camila

Letras, Acordes y Tabs para Guitarra, Bajo y Ukulele

  • Em=MIm - D=RE - C=DO - G=SOL
    creo que con estos datos ya esta mas que clara la manera de tocar
    la cancion... q esten bien.
    
    
    ***Notas CON SEJILLO en el PRIMER espacio:***
    
    Arpegio:
    
          Em            D           C            G
    e------1-----/-------------/------------/----------/
    B--------1---/-----8-------/-----6------/----4-----/
    G----1-------/-------8-----/-------6----/------5---/
    D--4---------/---8---------/---6--------/--6-------/
    A------------/-6-----------/-4----------/----------/
    E------------/-------------/------------/-4--------/
    
    
    (Como ya se había dicho, esta parte se empieza con arpegio)
    
    
  •    D#add9                                        Aadd9
    E---4------------------------------------------------------------
    A------6---------------6-------------------------4---------------
    D------------8------------8--------------------------6-----------
    G---------8---------------------8---------------------------6----
    B----------------------------6---------------------------4-------
    e----------------------------------------------------------------
       Eres todo lo que pedia      lo que mi alma vacia
    
    
    
    
                   E
    E--------------4-------------------------------------------------
    A-----------------6----------------------------------------------
    D----------------------6-----------------------------------------
    G-------------------5--------------------------------------------
    B----------------------------------------------------------------
    e----------------------------------------------------------------
       queria sentir
    
  •     Em                D                     Cadd9
    e-----------------------2----|-----------------------|
    B----0-----------------3-----|---------------------1-|
    G---0-----------------2------|--------------------0--|
    D--2-----------------0-------|-------------------0---|
    A-2--------------------------|------------------3----|
    E----------------------------|-----------------------|
     Eres todo lo que pedia      lo que mi alma vacia
        G
    e-----------------|
    B-----------------|
    G--------------0--|
    D-------------0---|
    A------------2----|
    E-----------3-----|
      Queria sentir
       Em                     D                      Cadd9
    e---------------------------2--|---------------------------|
    B------0-------------------3---|------------------------1--|
    G-----0-------------------2----|-----------------------0---|
    
  • +
    ¡Colabora con nosotros!
    Envíanos tu versión de esta canción

Letra de Esto es verdad
creo que con estos datos ya esta mas que clara la manera de tocar
la cancion... q esten bien.
***Notas CON SEJILLO en el PRIMER espacio:***
Arpegio:
(Como ya se había dicho, esta parte se empieza con arpegio)
Eres todo lo que Pedía
lo que mi alma vacía
Quería Sentir
Eres lo que tanto esperaba
lo que en sueños buscaba
y que en ti descubrí
(aqui se cambia el arpegio por un rasgueo suave)
Tu Has Llegado a Encender
cada parte de mi alma
cada espacio de mi ser
ya no tengo corazón
ni ojos para nadie
Rasgueo
Eres el amor de mi Vida
el destino lo sabia
y hoy te puso ante mi
y cada vez que miro al pasado
es que entiendo que a tu lado
siempre pertenecí...
Tu Has Llegado a Encender
cada parte de mi alma
cada espacio de mi ser
ya no tengo corazón
ni ojos para nadie
Esto es de verdad
lo puedo sentir
se que mi lugar
es junto a ti............uhhhh...
(es junto a ti)..........uhhhh...
Rasgueo suave
Eres todo lo que pedía
lo que no conocía
y que en ti descubrí...




[Esto es verdad chords][Esto es verdad cifra]
© LaCuerda.net · aviso legal · privacidad · es · en · pt · contacto