Acordes de Guitarra » C »Caifanes » ¿Será por eso? (Tab)

¿Será por eso?
Caifanes

  • Letra y Acordes
    E
    Desde aquel dia me trajeron para aca
    
    sera porque no me dejaba rasurar
    E                      B/Eb
    ya no me hablan ni siquiera las hormigas
    C#m                    G#/C          G#  F#m
    sera porque no saben que ando por aqui.
    
    
    E                         B/Eb
    Desde aquel dia no me he dejado tocar
    C#m                   G#/C
    solo mis manos me pueden acariciar
    E                      B/Eb
    no me he dejado de pintar en las paredes
    C#m                      G#/C         G#
    sera porque las sombras me hacen olvidar.
    
    
    
  • Letra y Acordes
    E                      B7
     Desde aquel dia me trajeron para aca
    C#m                 G#m
     Sera porque no me dejaba rasurar?
    E                       B7
     Ya no me hablan ni si quiera las hormigas.
    C#m                  G#m
     Sera porque no saben que ando por aqui?
    
    E                      B7
     Desde aquel dia no me he dejado tocar
    C#m                  G#m
     Solo mis unas me pueden acariciar.
    E                      B7
     No me he dejado de pintar en las paredes
    C#m                  G#m
     Sera porque las sombras me hacen olvidar?
    F#m   G             F#m     G
    Por eso me pongo un saco,
             F#m              C
    
  • Tablatura
                               ¿Será por eso?
    
    Visita: http://www.jaguaresmx.com/ dudas?????
    myspace.com/alejandrolauyola
    
                 W                   W
    E||-------|-------------------|-------------------|
    B||-------|-------------------|-------------------|
    G||-------|-------------------|-------------------|
    D||-------|--2----------------|--L----------------|
    A||-------|--2----------------|--L----------------|
    E||-------|-------------------|-------------------|
    
    
      W                   W                   W
    -------------------|-------------------|-------------------|
    -------------------|-------------------|-------------------|
    -------------------|-------------------|-------------------|
    --L----------------|--L----------------|--L----------------|
    --L----------------|--L----------------|--L----------------|
    -------------------|-------------------|-------------------|
    
    
      W                   W                   W
    -------------------|-------------------|-------------------|
    -------------
  • Tab p/Bajo
    ESTA ES LA VERSION EN VIVO CUANDO FUE LA PRESENTACION DEL DISCO EL NERVIO DEL VOLCAN 
    YA QUE EN ESTUDIO SE TOCA UN POQUITO MAS RAPIDO SALUDOS
    
    
    empieza
    G----------------------------------------
    D----------------------------------------
    A----------------------------------------
    E---0-000--0-000--0-000--0-000-000--0-000
    
    desde aquel dia me trajeron para aca sera 
    por que no me dejaba rasurar
    G------------------------------------------
    D------------------------------------------
    A------------------------------------------
    E--0-000-0-000-0-000-0-000-0-000-000-0-000-
    
    ya no me hablan ni siquiera las hormigas
    G-----------------------------------------
    D-----------------------------------------
    A------7----------------------6-----------
    E7------------77--------7-------------77--
    
    sera por que no saben que ando por aqui
    G-----------------------------------------
    D-----------------------------------------
    A------4-----------------------3----------
    E4------------44----
  • +
    ¡Colabora con nosotros!
    Envíanos tu versión de esta canción

Letra de ¿Será por eso?
Desde aquel dia me trajeron para aca
sera porque no me dejaba rasurar
ya no me hablan ni siquiera las hormigas
sera porque no saben que ando por aqui.
Desde aquel dia no me he dejado tocar
no me he dejado de pintar en las paredes
sera porque las sombras me hacen olvidar.
Por eso... me pongo un saco
tomo la navaja... y salgo a clavar.
Será por eso que no me dejan salir
será por eso que me dan electroshocks
Será por eso que no me dejan salir
será por eso que me dan electroshocks
Ya no me duele ni siquiera la razon
dicen que cuando duermo estoy mucho mejor
ya ni mis manos me creen lo que les platico
y eso hace que yo me sienta muy mal.
Por eso... me pongo un saco
tomo la navaja... y salgo a clavar
Será por eso que no me dejan salir
será por eso que me dan electroshocks
será por eso que no debo de temblar
será por eso que no tengo que... (2)



© LaCuerda.net · aviso legal · privacidad · contacto